  0
SECTION
  2
HEADER
  9
$ACADVER
  1
AC1009
  9
$INSBASE
 10
0.0
 20
0.0
 30
0.0
  9
$EXTMIN
 10
-39.912005020287893
 20
-64.747132156057305
 30
-0.0000000000022887
  9
$EXTMAX
 10
139.46790736506659
 20
54.026160208104208
 30
0.0000000000000001
  9
$LIMMIN
 10
0.0
 20
0.0
  9
$LIMMAX
 10
410.0
 20
287.0
  9
$ORTHOMODE
 70
     1
  9
$REGENMODE
 70
     1
  9
$FILLMODE
 70
     1
  9
$QTEXTMODE
 70
     0
  9
$MIRRTEXT
 70
     0
  9
$DRAGMODE
 70
     2
  9
$LTSCALE
 40
25.0
  9
$OSMODE
 70
    39
  9
$ATTMODE
 70
     1
  9
$TEXTSIZE
 40
8.0
  9
$TRACEWID
 40
1.0
  9
$TEXTSTYLE
  7
SIMPLEX
  9
$CLAYER
  8
MITTELLI
  9
$CELTYPE
  6
BYLAYER
  9
$CECOLOR
 62
   256
  9
$DIMSCALE
 40
1.0
  9
$DIMASZ
 40
7.0
  9
$DIMEXO
 40
0.1
  9
$DIMDLI
 40
7.0
  9
$DIMRND
 40
0.0
  9
$DIMDLE
 40
0.0
  9
$DIMEXE
 40
1.8
  9
$DIMTP
 40
1.0
  9
$DIMTM
 40
1.0
  9
$DIMTXT
 40
3.5
  9
$DIMCEN
 40
1.5
  9
$DIMTSZ
 40
0.0
  9
$DIMTOL
 70
     0
  9
$DIMLIM
 70
     0
  9
$DIMTIH
 70
     0
  9
$DIMTOH
 70
     0
  9
$DIMSE1
 70
     0
  9
$DIMSE2
 70
     0
  9
$DIMTAD
 70
     1
  9
$DIMZIN
 70
     0
  9
$DIMBLK
  1

  9
$DIMASO
 70
     0
  9
$DIMSHO
 70
     1
  9
$DIMPOST
  1

  9
$DIMAPOST
  1

  9
$DIMALT
 70
     0
  9
$DIMALTD
 70
     2
  9
$DIMALTF
 40
25.399999999999999
  9
$DIMLFAC
 40
1.0
  9
$DIMTOFL
 70
     0
  9
$DIMTVP
 40
0.0
  9
$DIMTIX
 70
     0
  9
$DIMSOXD
 70
     0
  9
$DIMSAH
 70
     0
  9
$DIMBLK1
  1

  9
$DIMBLK2
  1

  9
$DIMSTYLE
  2
STANDARD
  9
$DIMCLRD
 70
     0
  9
$DIMCLRE
 70
     0
  9
$DIMCLRT
 70
     0
  9
$DIMTFAC
 40
1.0
  9
$DIMGAP
 40
0.09
  9
$LUNITS
 70
     2
  9
$LUPREC
 70
     4
  9
$SKETCHINC
 40
0.1
  9
$FILLETRAD
 40
0.0
  9
$AUNITS
 70
     0
  9
$AUPREC
 70
     0
  9
$MENU
  1
c:/acad/acad
  9
$ELEVATION
 40
0.0
  9
$PELEVATION
 40
0.0
  9
$THICKNESS
 40
0.0
  9
$LIMCHECK
 70
     0
  9
$BLIPMODE
 70
     0
  9
$CHAMFERA
 40
2.0
  9
$CHAMFERB
 40
2.0
  9
$SKPOLY
 70
     0
  9
$TDCREATE
 40
2448364.5747825229
  9
$TDUPDATE
 40
2452678.4826639351
  9
$TDINDWG
 40
0.2185509375
  9
$TDUSRTIMER
 40
0.2185509375
  9
$USRTIMER
 70
     1
  9
$ANGBASE
 50
0.0
  9
$ANGDIR
 70
     0
  9
$PDMODE
 70
     0
  9
$PDSIZE
 40
0.0
  9
$PLINEWID
 40
0.0
  9
$COORDS
 70
     0
  9
$SPLFRAME
 70
     0
  9
$SPLINETYPE
 70
     6
  9
$SPLINESEGS
 70
     8
  9
$ATTDIA
 70
     0
  9
$ATTREQ
 70
     1
  9
$HANDLING
 70
  4097
  9
$HANDSEED
  5
335
  9
$SURFTAB1
 70
     6
  9
$SURFTAB2
 70
     6
  9
$SURFTYPE
 70
     6
  9
$SURFU
 70
     6
  9
$SURFV
 70
     6
  9
$UCSNAME
  2

  9
$UCSORG
 10
0.0
 20
0.0
 30
0.0
  9
$UCSXDIR
 10
1.0
 20
0.0
 30
0.0
  9
$UCSYDIR
 10
0.0
 20
1.0
 30
0.0
  9
$PUCSNAME
  2

  9
$PUCSORG
 10
0.0
 20
0.0
 30
0.0
  9
$PUCSXDIR
 10
1.0
 20
0.0
 30
0.0
  9
$PUCSYDIR
 10
0.0
 20
1.0
 30
0.0
  9
$USERI1
 70
     0
  9
$USERI2
 70
     0
  9
$USERI3
 70
     0
  9
$USERI4
 70
     0
  9
$USERI5
 70
     0
  9
$USERR1
 40
0.0
  9
$USERR2
 40
0.0
  9
$USERR3
 40
0.0
  9
$USERR4
 40
0.0
  9
$USERR5
 40
0.0
  9
$WORLDVIEW
 70
     1
  9
$SHADEDGE
 70
     3
  9
$SHADEDIF
 70
    70
  9
$TILEMODE
 70
     1
  9
$MAXACTVP
 70
    48
  9
$PLIMCHECK
 70
     0
  9
$PEXTMIN
 10
1.0000000000000000E+020
 20
1.0000000000000000E+020
 30
1.0000000000000000E+020
  9
$PEXTMAX
 10
-1.0000000000000000E+020
 20
-1.0000000000000000E+020
 30
-1.0000000000000000E+020
  9
$PLIMMIN
 10
0.0
 20
0.0
  9
$PLIMMAX
 10
12.0
 20
9.0
  9
$UNITMODE
 70
     0
  9
$VISRETAIN
 70
     1
  9
$PLINEGEN
 70
     0
  9
$PSLTSCALE
 70
     0
  0
ENDSEC
  0
SECTION
  2
TABLES
  0
TABLE
  2
VPORT
 70
     3
  0
VPORT
  2
*ACTIVE
 70
     0
 10
0.0
 20
0.0
 11
1.0
 21
1.0
 12
49.777951172389351
 22
-5.3604859739765507
 13
0.0
 23
0.0
 14
0.5
 24
0.5
 15
10.0
 25
10.0
 16
0.0
 26
0.0
 36
1.0
 17
0.0
 27
0.0
 37
0.0
 40
120.8570343354625
 41
2.126099706744867
 42
50.0
 43
0.0
 44
0.0
 50
0.0
 51
0.0
 71
     0
 72
   100
 73
     1
 74
     0
 75
     0
 76
     0
 77
     0
 78
     0
  0
ENDTAB
  0
TABLE
  2
LTYPE
 70
     2
  0
LTYPE
  2
CONTINUOUS
 70
     0
  3
Solid line
 72
    65
 73
     0
 40
0.0
  0
LTYPE
  2
MITTKLEIN
 70
     0
  3
__ . __ . ___ 
 72
    65
 73
     4
 40
0.45
 49
0.25
 49
-0.1
 49
0.0
 49
-0.1
  0
ENDTAB
  0
TABLE
  2
LAYER
 70
     2
  0
LAYER
  2
0
 70
     0
 62
     7
  6
CONTINUOUS
  0
LAYER
  2
MITTELLI
 70
     0
 62
     1
  6
MITTKLEIN
  0
ENDTAB
  0
TABLE
  2
STYLE
 70
     4
  0
STYLE
  2
TXT
 70
     0
 40
0.0
 41
1.0
 50
0.0
 71
     0
 42
2.5
  3
8txt
  4

  0
STYLE
  2
SIMPLEX
 70
     0
 40
0.0
 41
1.0
 50
0.0
 71
     0
 42
8.0
  3
8simplex
  4

  0
STYLE
  2
STANDARD
 70
     0
 40
0.0
 41
1.0
 50
0.0
 71
     0
 42
0.2
  3
txt
  4

  0
STYLE
  2

 70
     0
 40
0.0
 41
0.0
 50
0.0
 71
     0
 42
0.0
  3
txt
  4

  0
ENDTAB
  0
TABLE
  2
VIEW
 70
     0
  0
ENDTAB
  0
TABLE
  2
UCS
 70
     0
  0
ENDTAB
  0
TABLE
  2
APPID
 70
     1
  0
APPID
  2
ACAD
 70
     0
  0
ENDTAB
  0
TABLE
  2
DIMSTYLE
 70
     1
  0
DIMSTYLE
  2
STANDARD
 70
     0
  3

  4

  5

  6

  7

 40
1.0
 41
0.18
 42
0.0625
 43
0.38
 44
0.18
 45
0.0
 46
0.0
 47
0.0
 48
0.0
140
0.18
141
0.09
142
0.0
143
25.399999999999999
144
1.0
145
0.0
146
1.0
147
0.09
 71
     0
 72
     0
 73
     1
 74
     1
 75
     0
 76
     0
 77
     0
 78
     0
170
     0
171
     2
172
     0
173
     0
174
     0
175
     0
176
     0
177
     0
178
     0
  0
ENDTAB
  0
ENDSEC
  0
SECTION
  2
BLOCKS
  0
BLOCK
  8
0
  2
$MODEL_SPACE
 70
     0
 10
0.0
 20
0.0
 30
0.0
  3
$MODEL_SPACE
  1

  0
ENDBLK
  5
9
  8
0
  0
BLOCK
 67
     1
  8
0
  2
$PAPER_SPACE
 70
     0
 10
0.0
 20
0.0
 30
0.0
  3
$PAPER_SPACE
  1

  0
ENDBLK
  5
E
 67
     1
  8
0
  0
ENDSEC
  0
SECTION
  2
ENTITIES
  0
LINE
  5
27
  8
0
 10
132.49999999999989
 20
54.0
 30
0.0
 11
132.49999999999989
 21
-54.0
 31
0.0
  0
LINE
  5
28
  8
0
 10
-1.5
 20
-30.0
 30
0.0
 11
-1.5
 21
30.0
 31
0.0
  0
LINE
  5
29
  8
0
 10
-32.0
 20
-5.000000000000056
 30
0.0
 11
-31.0
 21
-6.0
 31
0.0
  0
LINE
  5
2A
  8
0
 10
-31.0
 20
5.9999999999999432
 30
0.0
 11
-31.0
 21
-6.0
 31
0.0
  0
LINE
  5
2B
  8
0
 10
80.999999999999943
 20
54.0
 30
0.0
 11
80.999999999999943
 21
-54.0
 31
0.0
  0
LINE
  5
2C
  8
0
 10
9.0
 20
-54.0
 30
0.0
 11
9.0
 21
54.0
 31
0.0
  0
LINE
  5
2D
  8
0
 10
0.0
 20
-54.000000000000007
 30
0.0
 11
0.0
 21
54.0
 31
0.0
  0
POLYLINE
  5
2E
  8
0
 66
     1
 10
0.0
 20
0.0
 30
0.0
  0
VERTEX
  5
331
  8
0
 10
9.0
 20
54.0
 30
0.0
  0
VERTEX
  5
332
  8
0
 10
135.49999999999989
 20
54.000000000000028
 30
0.0
  0
VERTEX
  5
333
  8
0
 10
135.49999999999989
 20
-54.000000000000021
 30
0.0
  0
SEQEND
  5
334
  8
0
  0
TEXT
  5
5C
  8
0
 10
11.640513801549391
 20
-48.71622466360941
 30
0.0
 40
5.1200000000000001
  1
SM 107.1.18 MHP
  7
SIMPLEX
  0
LINE
  5
5D
  8
0
 10
9.0
 20
-50.596442562694051
 30
0.0
 11
0.0
 21
-50.596442562694051
 31
0.0
  0
LINE
  5
5E
  8
0
 10
-31.0
 20
-6.0
 30
0.0
 11
-1.5
 21
-6.0
 31
0.0
  0
LINE
  5
5F
  8
0
 10
-1.5
 20
-30.0
 30
0.0
 11
0.0
 21
-30.0
 31
0.0
  0
LINE
  5
81
  8
MITTELLI
 10
-39.898276261978879
 20
0.0
 30
0.0
 11
139.4379199431493
 21
0.0
 31
0.0
  0
LINE
  5
82
  8
0
 10
-24.5
 20
2.5
 30
0.0
 11
-9.5
 21
2.5
 31
0.0
  0
LINE
  5
83
  8
0
 10
-24.5
 20
-2.5
 30
0.0
 11
-9.5
 21
-2.5
 31
0.0
  0
LINE
  5
84
  8
0
 10
-31.0
 20
5.9999999999999432
 30
0.0
 11
-1.5
 21
5.9999999999999432
 31
0.0
  0
ARC
  5
85
  8
0
 10
-9.5
 20
0.0
 30
0.0
 40
2.5
 50
269.99996170827569
 51
90.000038291724223
  0
ARC
  5
86
  8
0
 10
-24.5
 20
0.0
 30
0.0
 40
2.5
 50
90.0
 51
270.0
  0
POINT
  5
87
  8
0
 10
-32.0
 20
2.5
 30
0.0
  0
POINT
  5
88
  8
0
 10
-32.0
 20
4.9999999999999432
 30
0.0
  0
LINE
  5
89
  8
0
 10
-31.0
 20
5.9999999999999432
 30
0.0
 11
-32.0
 21
4.9999999999999432
 31
0.0
  0
LINE
  5
8A
  8
0
 10
-32.0
 20
-5.0
 30
0.0
 11
-32.0
 21
4.9999999999999432
 31
0.0
  0
LINE
  5
8B
  8
0
 10
-1.5
 20
30.0
 30
0.0
 11
0.0
 21
30.0
 31
0.0
  0
LINE
  5
8C
  8
0
 10
9.0
 20
50.596442562693987
 30
0.0
 11
0.0
 21
50.596442562693987
 31
0.0
  0
LINE
  5
8D
  8
0
 10
0.0
 20
54.0
 30
0.0
 11
9.0
 21
54.0
 31
0.0
  0
POINT
  5
8E
  8
0
 10
0.0
 20
54.0
 30
0.0
  0
LINE
  5
8F
  8
0
 10
138.1389299889731
 20
51.341664200661512
 30
0.0
 11
135.49999999999989
 21
51.499999999999773
 31
0.0
  0
LINE
  5
90
  8
0
 10
138.1389299889731
 20
45.158335799338261
 30
0.0
 11
135.49999999999989
 21
44.999999999999773
 31
0.0
  0
LINE
  5
91
  8
0
 10
138.74999999999989
 20
48.89999999999975
 30
0.0
 11
137.4499999999999
 21
48.89999999999975
 31
0.0
  0
LINE
  5
92
  8
0
 10
138.74999999999989
 20
50.692831051108669
 30
0.0
 11
138.74999999999989
 21
48.89999999999975
 31
0.0
  0
ARC
  5
93
  8
0
 10
138.09999999999991
 20
50.692831051108669
 30
0.0
 40
0.65
 50
0.0
 51
86.566369637550537
  0
ARC
  5
94
  8
0
 10
138.09999999999991
 20
45.80716894889099
 30
0.0
 40
0.65
 50
273.43363036244938
 51
0.0
  0
LINE
  5
95
  8
0
 10
138.74999999999989
 20
47.599999999999788
 30
0.0
 11
137.4499999999999
 21
47.599999999999788
 31
0.0
  0
LINE
  5
96
  8
0
 10
138.74999999999989
 20
45.80716894889099
 30
0.0
 11
138.74999999999989
 21
47.599999999999788
 31
0.0
  0
LINE
  5
97
  8
0
 10
137.4499999999999
 20
48.89999999999975
 30
0.0
 11
137.4499999999999
 21
47.599999999999788
 31
0.0
  0
LINE
  5
2C8
  8
0
 10
138.1389299889731
 20
-45.158335799338282
 30
0.0
 11
135.49999999999989
 21
-44.999999999999787
 31
0.0
  0
LINE
  5
2C9
  8
0
 10
138.1389299889731
 20
-51.341664200661533
 30
0.0
 11
135.49999999999989
 21
-51.499999999999787
 31
0.0
  0
ARC
  5
2CA
  8
0
 10
117.4999999999998
 20
-51.650378869081962
 30
0.0
 40
12.60815275542957
 50
33.857998802880211
 51
146.1420011971145
  0
LINE
  5
2CB
  8
0
 10
117.5000000000001
 20
-54.948394907271762
 30
0.0
 11
123.73456824828109
 21
-55.852432442832331
 31
0.0
  0
LINE
  5
2CC
  8
0
 10
117.5000000000021
 20
-58.658817774853247
 30
0.0
 11
123.7345682482833
 21
-59.562855310413823
 31
0.0
  0
LINE
  5
2CD
  8
0
 10
117.5000000000021
 20
-64.736398831964181
 30
0.0
 11
123.7345682482833
 21
-63.832361296403668
 31
0.0
  0
ARC
  5
2CE
  8
0
 10
117.60925342308821
 20
-68.160859343328951
 30
0.0
 40
14.93141625830204
 50
56.894423584628768
 51
123.1055764153712
  0
ARC
  5
2CF
  8
0
 10
117.5000000000002
 20
-68.192137778978321
 30
0.0
 40
17.005580066645241
 50
54.200970993750452
 51
125.7990290062495
  0
ARC
  5
2D0
  8
0
 10
117.5000000000001
 20
-54.225102381545121
 30
0.0
 40
8.6696087345522432
 50
245.3219483027535
 51
294.67805169724278
  0
ARC
  5
2D1
  8
0
 10
117.5000000000001
 20
-69.147022374327193
 30
0.0
 40
8.5330334904247067
 50
65.122103603562763
 51
114.87789639643719
  0
LINE
  5
2D2
  8
0
 10
117.5000000000001
 20
-54.948394907271762
 30
0.0
 11
117.5000000000001
 21
-58.658817774852949
 31
0.0
  0
LINE
  5
2D3
  8
0
 10
111.26543175171911
 20
-55.852432442832331
 30
0.0
 11
111.26543175171911
 21
-59.562855310413482
 31
0.0
  0
LINE
  5
2D4
  8
0
 10
111.26543175171911
 20
-55.852432442832331
 30
0.0
 11
108.2880174249245
 21
-57.98718543582882
 31
0.0
  0
ARC
  5
2D5
  8
0
 10
109.4091933882805
 20
-55.88813288800953
 30
0.0
 40
2.3797178696897441
 50
141.2730537724953
 51
241.89179587316031
  0
LINE
  5
2D6
  8
0
 10
111.26543175171651
 20
-63.832361296406731
 30
0.0
 11
108.2880174249224
 21
-61.697608303410249
 31
0.0
  0
LINE
  5
2D7
  8
0
 10
111.2654317517168
 20
-59.562855310413823
 30
0.0
 11
108.2880174249224
 21
-61.697608303410249
 31
0.0
  0
LINE
  5
2D8
  8
0
 10
108.2880174249247
 20
-61.697608303408707
 30
0.0
 11
108.2880174249245
 21
-57.98718543582882
 31
0.0
  0
LINE
  5
2D9
  8
0
 10
117.4999999999979
 20
-64.736398831964181
 30
0.0
 11
111.2654317517168
 21
-63.832361296403668
 31
0.0
  0
LINE
  5
2DA
  8
0
 10
117.4999999999979
 20
-58.658817774853247
 30
0.0
 11
111.2654317517168
 21
-59.562855310413823
 31
0.0
  0
ARC
  5
2DB
  8
0
 10
114.1365891880224
 20
-61.764735127133179
 30
0.0
 40
0.4243268062755158
 50
122.23224679872889
 51
232.8392969757243
  0
LINE
  5
2DC
  8
0
 10
107.02992616139009
 20
-55.841823036288602
 30
0.0
 11
107.02992616139009
 21
-44.625916632134192
 31
0.0
  0
LINE
  5
2DD
  8
0
 10
107.02992616138989
 20
-55.84182303628868
 30
0.0
 11
107.02992616138989
 21
-44.625916632134278
 31
0.0
  0
LINE
  5
2DE
  8
0
 10
109.4539603667925
 20
-57.151225132146273
 30
0.0
 11
109.4539603667925
 21
-55.65332614750568
 31
0.0
  0
LINE
  5
2DF
  8
0
 10
117.5000000000001
 20
-54.948394907271762
 30
0.0
 11
111.26543175171911
 21
-55.852432442832331
 31
0.0
  0
ARC
  5
2E0
  8
0
 10
125.5908064036374
 20
-55.888132845362669
 30
0.0
 40
2.3797180053420761
 50
298.10820806217282
 51
38.726942292201663
  0
LINE
  5
2E1
  8
0
 10
123.73456824828109
 20
-55.852432442832331
 30
0.0
 11
123.73456824828109
 21
-59.562855310413482
 31
0.0
  0
LINE
  5
2E2
  8
0
 10
123.73456824828109
 20
-55.852432442832331
 30
0.0
 11
126.7119825750755
 21
-57.98718543582882
 31
0.0
  0
ARC
  5
2E3
  8
0
 10
120.8634108119778
 20
-61.764735127133179
 30
0.0
 40
0.4243268062755158
 50
307.16070302427562
 51
57.767753201270999
  0
LINE
  5
2E4
  8
0
 10
126.7119825750777
 20
-61.697608303407179
 30
0.0
 11
126.7119825750755
 21
-57.98718543582882
 31
0.0
  0
LINE
  5
2E5
  8
0
 10
123.7345682482833
 20
-63.832361296403668
 30
0.0
 11
126.7119825750777
 21
-61.697608303407179
 31
0.0
  0
LINE
  5
2E6
  8
0
 10
123.7345682482833
 20
-59.562855310413823
 30
0.0
 11
126.7119825750777
 21
-61.697608303410249
 31
0.0
  0
LINE
  5
2E7
  8
0
 10
135.49999999999989
 20
-54.000000000000021
 30
0.0
 11
127.97007383860981
 21
-54.000000000000021
 31
0.0
  0
LINE
  5
2E8
  8
0
 10
127.97007383861001
 20
-44.62591663213459
 30
0.0
 11
127.97007383861001
 21
-55.653326147505659
 31
0.0
  0
LINE
  5
2E9
  8
0
 10
127.97007383861011
 20
-44.625916632134668
 30
0.0
 11
127.97007383861011
 21
-55.65332614750573
 31
0.0
  0
LINE
  5
2EA
  8
0
 10
125.76454647938441
 20
-57.151225132146273
 30
0.0
 11
125.76454647938441
 21
-55.65332614750568
 31
0.0
  0
LINE
  5
2EB
  8
0
 10
135.49999999999989
 20
-54.000000000000021
 30
0.0
 11
132.50000000000011
 21
-54.000000000000021
 31
0.0
  0
LINE
  5
2EC
  8
0
 10
138.74999999999989
 20
-50.692831051108691
 30
0.0
 11
138.74999999999989
 21
-48.899999999999771
 31
0.0
  0
ARC
  5
2ED
  8
0
 10
138.09999999999991
 20
-50.692831051108691
 30
0.0
 40
0.65
 50
273.43363036244961
 51
0.0
  0
ARC
  5
2EE
  8
0
 10
138.09999999999991
 20
-45.807168948891011
 30
0.0
 40
0.65
 50
0.0
 51
86.566369637550423
  0
LINE
  5
2EF
  8
0
 10
137.4499999999999
 20
-48.899999999999771
 30
0.0
 11
137.4499999999999
 21
-47.599999999999817
 31
0.0
  0
LINE
  5
2F0
  8
0
 10
138.74999999999989
 20
-47.599999999999817
 30
0.0
 11
137.4499999999999
 21
-47.599999999999817
 31
0.0
  0
LINE
  5
2F1
  8
0
 10
138.74999999999989
 20
-48.899999999999771
 30
0.0
 11
137.4499999999999
 21
-48.899999999999771
 31
0.0
  0
LINE
  5
2F2
  8
0
 10
138.74999999999989
 20
-45.807168948891011
 30
0.0
 11
138.74999999999989
 21
-47.599999999999817
 31
0.0
  0
LINE
  5
2F3
  8
0
 10
107.0299261613898
 20
-54.000000000000021
 30
0.0
 11
0.0
 21
-54.000000000000007
 31
0.0
  0
ENDSEC
  0
EOF
