  0
SECTION
  2
HEADER
  9
$ACADVER
  1
AC1009
  9
$INSBASE
 10
0.0
 20
0.0
 30
0.0
  9
$EXTMIN
 10
-52.597740040597607
 20
-74.426573858586607
 30
-0.0015258207003583
  9
$EXTMAX
 10
221.90600034992951
 20
54.000801212524721
 30
0.0000000349246037
  9
$LIMMIN
 10
0.0
 20
0.0
  9
$LIMMAX
 10
410.0
 20
287.0
  9
$ORTHOMODE
 70
     1
  9
$REGENMODE
 70
     1
  9
$FILLMODE
 70
     1
  9
$QTEXTMODE
 70
     0
  9
$MIRRTEXT
 70
     0
  9
$DRAGMODE
 70
     2
  9
$LTSCALE
 40
25.0
  9
$OSMODE
 70
    39
  9
$ATTMODE
 70
     1
  9
$TEXTSIZE
 40
8.0
  9
$TRACEWID
 40
1.0
  9
$TEXTSTYLE
  7
SIMPLEX
  9
$CLAYER
  8
0
  9
$CELTYPE
  6
BYLAYER
  9
$CECOLOR
 62
   256
  9
$DIMSCALE
 40
1.0
  9
$DIMASZ
 40
7.0
  9
$DIMEXO
 40
0.1
  9
$DIMDLI
 40
7.0
  9
$DIMRND
 40
0.0
  9
$DIMDLE
 40
0.0
  9
$DIMEXE
 40
1.8
  9
$DIMTP
 40
1.0
  9
$DIMTM
 40
1.0
  9
$DIMTXT
 40
3.5
  9
$DIMCEN
 40
1.5
  9
$DIMTSZ
 40
0.0
  9
$DIMTOL
 70
     0
  9
$DIMLIM
 70
     0
  9
$DIMTIH
 70
     0
  9
$DIMTOH
 70
     0
  9
$DIMSE1
 70
     0
  9
$DIMSE2
 70
     0
  9
$DIMTAD
 70
     1
  9
$DIMZIN
 70
     0
  9
$DIMBLK
  1

  9
$DIMASO
 70
     0
  9
$DIMSHO
 70
     1
  9
$DIMPOST
  1

  9
$DIMAPOST
  1

  9
$DIMALT
 70
     0
  9
$DIMALTD
 70
     2
  9
$DIMALTF
 40
25.399999999999999
  9
$DIMLFAC
 40
1.0
  9
$DIMTOFL
 70
     0
  9
$DIMTVP
 40
0.0
  9
$DIMTIX
 70
     0
  9
$DIMSOXD
 70
     0
  9
$DIMSAH
 70
     0
  9
$DIMBLK1
  1

  9
$DIMBLK2
  1

  9
$DIMSTYLE
  2
STANDARD
  9
$DIMCLRD
 70
     0
  9
$DIMCLRE
 70
     0
  9
$DIMCLRT
 70
     0
  9
$DIMTFAC
 40
1.0
  9
$DIMGAP
 40
0.09
  9
$LUNITS
 70
     2
  9
$LUPREC
 70
     4
  9
$SKETCHINC
 40
0.1
  9
$FILLETRAD
 40
0.0
  9
$AUNITS
 70
     0
  9
$AUPREC
 70
     0
  9
$MENU
  1
c:/acad/acad
  9
$ELEVATION
 40
0.0
  9
$PELEVATION
 40
0.0
  9
$THICKNESS
 40
0.0
  9
$LIMCHECK
 70
     0
  9
$BLIPMODE
 70
     0
  9
$CHAMFERA
 40
2.0
  9
$CHAMFERB
 40
2.0
  9
$SKPOLY
 70
     0
  9
$TDCREATE
 40
2448364.5747825229
  9
$TDUPDATE
 40
2452677.7694756482
  9
$TDINDWG
 40
0.2192079167
  9
$TDUSRTIMER
 40
0.2192077894
  9
$USRTIMER
 70
     1
  9
$ANGBASE
 50
0.0
  9
$ANGDIR
 70
     0
  9
$PDMODE
 70
     0
  9
$PDSIZE
 40
0.0
  9
$PLINEWID
 40
0.0
  9
$COORDS
 70
     0
  9
$SPLFRAME
 70
     0
  9
$SPLINETYPE
 70
     6
  9
$SPLINESEGS
 70
     8
  9
$ATTDIA
 70
     0
  9
$ATTREQ
 70
     1
  9
$HANDLING
 70
  4097
  9
$HANDSEED
  5
30A1
  9
$SURFTAB1
 70
     6
  9
$SURFTAB2
 70
     6
  9
$SURFTYPE
 70
     6
  9
$SURFU
 70
     6
  9
$SURFV
 70
     6
  9
$UCSNAME
  2

  9
$UCSORG
 10
0.0
 20
0.0
 30
0.0
  9
$UCSXDIR
 10
1.0
 20
0.0
 30
0.0
  9
$UCSYDIR
 10
0.0
 20
1.0
 30
0.0
  9
$PUCSNAME
  2

  9
$PUCSORG
 10
0.0
 20
0.0
 30
0.0
  9
$PUCSXDIR
 10
1.0
 20
0.0
 30
0.0
  9
$PUCSYDIR
 10
0.0
 20
1.0
 30
0.0
  9
$USERI1
 70
     0
  9
$USERI2
 70
     0
  9
$USERI3
 70
     0
  9
$USERI4
 70
     0
  9
$USERI5
 70
     0
  9
$USERR1
 40
0.0
  9
$USERR2
 40
0.0
  9
$USERR3
 40
0.0
  9
$USERR4
 40
0.0
  9
$USERR5
 40
0.0
  9
$WORLDVIEW
 70
     1
  9
$SHADEDGE
 70
     3
  9
$SHADEDIF
 70
    70
  9
$TILEMODE
 70
     1
  9
$MAXACTVP
 70
    48
  9
$PLIMCHECK
 70
     0
  9
$PEXTMIN
 10
1.0000000000000000E+020
 20
1.0000000000000000E+020
 30
1.0000000000000000E+020
  9
$PEXTMAX
 10
-1.0000000000000000E+020
 20
-1.0000000000000000E+020
 30
-1.0000000000000000E+020
  9
$PLIMMIN
 10
0.0
 20
0.0
  9
$PLIMMAX
 10
12.0
 20
9.0
  9
$UNITMODE
 70
     0
  9
$VISRETAIN
 70
     1
  9
$PLINEGEN
 70
     0
  9
$PSLTSCALE
 70
     0
  0
ENDSEC
  0
SECTION
  2
TABLES
  0
TABLE
  2
VPORT
 70
     3
  0
VPORT
  2
*ACTIVE
 70
     0
 10
0.0
 20
0.0
 11
1.0
 21
1.0
 12
84.654130154665935
 22
-10.21288632303094
 13
0.0
 23
0.0
 14
0.5
 24
0.5
 15
10.0
 25
10.0
 16
0.0
 26
0.0
 36
1.0
 17
0.0
 27
0.0
 37
0.0
 40
130.69248760524729
 41
2.126099706744867
 42
50.0
 43
0.0
 44
0.0
 50
0.0
 51
0.0
 71
     0
 72
   100
 73
     1
 74
     0
 75
     0
 76
     0
 77
     0
 78
     0
  0
ENDTAB
  0
TABLE
  2
LTYPE
 70
     2
  0
LTYPE
  2
CONTINUOUS
 70
     0
  3
Solid line
 72
    65
 73
     0
 40
0.0
  0
LTYPE
  2
MITTKLEIN
 70
     0
  3
__ . __ . ___ 
 72
    65
 73
     4
 40
0.45
 49
0.25
 49
-0.1
 49
0.0
 49
-0.1
  0
ENDTAB
  0
TABLE
  2
LAYER
 70
     2
  0
LAYER
  2
0
 70
     0
 62
     7
  6
CONTINUOUS
  0
LAYER
  2
MITTELLI
 70
     0
 62
     1
  6
MITTKLEIN
  0
ENDTAB
  0
TABLE
  2
STYLE
 70
     4
  0
STYLE
  2
STANDARD
 70
     0
 40
0.0
 41
1.0
 50
0.0
 71
     0
 42
0.2
  3
txt
  4

  0
STYLE
  2
SIMPLEX
 70
     0
 40
0.0
 41
1.0
 50
0.0
 71
     0
 42
8.0
  3
8simplex
  4

  0
STYLE
  2
TXT
 70
     0
 40
0.0
 41
1.0
 50
0.0
 71
     0
 42
2.5
  3
8txt
  4

  0
STYLE
  2
TEXT50
 70
     0
 40
5.0
 41
1.0
 50
0.0
 71
     0
 42
5.0
  3
8simplex
  4

  0
ENDTAB
  0
TABLE
  2
VIEW
 70
     0
  0
ENDTAB
  0
TABLE
  2
UCS
 70
     0
  0
ENDTAB
  0
TABLE
  2
APPID
 70
     1
  0
APPID
  2
ACAD
 70
     0
  0
ENDTAB
  0
TABLE
  2
DIMSTYLE
 70
     1
  0
DIMSTYLE
  2
STANDARD
 70
     0
  3

  4

  5

  6

  7

 40
1.0
 41
0.18
 42
0.0625
 43
0.38
 44
0.18
 45
0.0
 46
0.0
 47
0.0
 48
0.0
140
0.18
141
0.09
142
0.0
143
25.399999999999999
144
1.0
145
0.0
146
1.0
147
0.09
 71
     0
 72
     0
 73
     1
 74
     1
 75
     0
 76
     0
 77
     0
 78
     0
170
     0
171
     2
172
     0
173
     0
174
     0
175
     0
176
     0
177
     0
178
     0
  0
ENDTAB
  0
ENDSEC
  0
SECTION
  2
BLOCKS
  0
BLOCK
  8
0
  2
$MODEL_SPACE
 70
     0
 10
0.0
 20
0.0
 30
0.0
  3
$MODEL_SPACE
  1

  0
ENDBLK
  5
175F
  8
0
  0
BLOCK
 67
     1
  8
0
  2
$PAPER_SPACE
 70
     0
 10
0.0
 20
0.0
 30
0.0
  3
$PAPER_SPACE
  1

  0
ENDBLK
  5
175B
 67
     1
  8
0
  0
ENDSEC
  0
SECTION
  2
ENTITIES
  0
LINE
  5
176F
  8
0
 10
-48.999999999999972
 20
8.0
 30
0.0
 11
-1.5
 21
8.0
 31
0.0
  0
LINE
  5
1770
  8
0
 10
-48.999999999999972
 20
-8.0
 30
0.0
 11
-1.5
 21
-8.0
 31
0.0
  0
LINE
  5
1771
  8
MITTELLI
 10
-52.583624185727238
 20
0.0
 30
0.0
 11
221.1562892006969
 21
0.0
 31
0.0
  0
LINE
  5
1772
  8
0
 10
-42.5
 20
-2.5
 30
0.0
 11
-27.5
 21
-2.5
 31
0.0
  0
LINE
  5
1773
  8
0
 10
-42.5
 20
2.5
 30
0.0
 11
-27.5
 21
2.5
 31
0.0
  0
POINT
  5
1774
  8
0
 10
-49.999999999999972
 20
2.5
 30
0.0
  0
POINT
  5
1775
  8
0
 10
-49.999999999999972
 20
7.0
 30
0.0
  0
LINE
  5
1776
  8
0
 10
-48.999999999999972
 20
8.0
 30
0.0
 11
-50.000000000000021
 21
7.0
 31
0.0
  0
POINT
  5
1777
  8
0
 10
-49.999999999999972
 20
-7.0
 30
0.0
  0
LINE
  5
1778
  8
0
 10
-48.999999999999972
 20
-8.0
 30
0.0
 11
-49.999999999999972
 21
-7.0000000000001119
 31
0.0
  0
ARC
  5
1779
  8
0
 10
-42.5
 20
0.0
 30
0.0
 40
2.5
 50
90.0
 51
270.0
  0
LINE
  5
177A
  8
0
 10
-48.999999999999972
 20
8.0
 30
0.0
 11
-48.999999999999972
 21
-8.0
 31
0.0
  0
LINE
  5
177B
  8
0
 10
-49.999999999999972
 20
-7.0000000000001119
 30
0.0
 11
-50.000000000000021
 21
7.0
 31
0.0
  0
ARC
  5
177C
  8
0
 10
-27.5
 20
0.0
 30
0.0
 40
2.5
 50
269.99996170827558
 51
90.000038291724223
  0
LINE
  5
2E01
  8
0
 10
215.4999999999998
 20
54.0
 30
0.0
 11
215.4999999999998
 21
-55.000000000000021
 31
0.0
  0
LINE
  5
2E02
  8
0
 10
188.4999999999998
 20
54.0
 30
0.0
 11
188.4999999999998
 21
-55.000000000000021
 31
0.0
  0
LINE
  5
2E03
  8
0
 10
218.4999999999998
 20
53.999999999999972
 30
0.0
 11
218.4999999999998
 21
-54.0
 31
0.0
  0
LINE
  5
2E04
  8
0
 10
0.0
 20
-54.0
 30
0.0
 11
0.0
 21
54.0
 31
0.0
  0
LINE
  5
2E05
  8
0
 10
9.0
 20
-54.0
 30
0.0
 11
9.0
 21
54.0
 31
0.0
  0
LINE
  5
2E06
  8
0
 10
130.9999999999998
 20
54.0
 30
0.0
 11
130.9999999999998
 21
-54.0
 31
0.0
  0
LINE
  5
2E07
  8
0
 10
134.4999999999998
 20
54.0
 30
0.0
 11
134.4999999999998
 21
-54.0
 31
0.0
  0
LINE
  5
2E08
  8
0
 10
188.4999999999998
 20
-54.0
 30
0.0
 11
0.0
 21
-54.0
 31
0.0
  0
TEXT
  5
2E09
  8
0
 10
14.797372426580919
 20
-48.71622466360941
 30
0.0
 40
5.1200000000000001
  1
SM 107.2.18 MBE50
  7
SIMPLEX
  0
LINE
  5
2E0A
  8
0
 10
9.0
 20
-50.596442562694037
 30
0.0
 11
0.0
 21
-50.596442562694037
 31
0.0
  0
LINE
  5
2E3B
  8
0
 10
0.0
 20
54.0
 30
0.0
 11
218.4999999999998
 21
53.999999999999972
 31
0.0
  0
LINE
  5
2E3C
  8
0
 10
-1.5
 20
-30.0
 30
0.0
 11
-1.5
 21
30.0
 31
0.0
  0
LINE
  5
2E3D
  8
0
 10
-1.5
 20
-30.0
 30
0.0
 11
0.0
 21
-30.0
 31
0.0
  0
LINE
  5
2E3E
  8
0
 10
-1.5
 20
30.0
 30
0.0
 11
0.0
 21
30.0
 31
0.0
  0
POINT
  5
2E3F
  8
0
 10
0.0
 20
54.0
 30
0.0
  0
LINE
  5
2E40
  8
0
 10
9.0
 20
50.59644256269393
 30
0.0
 11
0.0
 21
50.59644256269393
 31
0.0
  0
LINE
  5
2E41
  8
0
 10
221.7499999999998
 20
50.692831051108662
 30
0.0
 11
221.7499999999998
 21
48.89999999999975
 31
0.0
  0
LINE
  5
2E42
  8
0
 10
221.1389299889729
 20
45.158335799338253
 30
0.0
 11
218.4999999999998
 21
44.999999999999773
 31
0.0
  0
LINE
  5
2E43
  8
0
 10
221.7499999999998
 20
48.89999999999975
 30
0.0
 11
220.4499999999999
 21
48.89999999999975
 31
0.0
  0
ARC
  5
2E44
  8
0
 10
221.09999999999991
 20
45.80716894889099
 30
0.0
 40
0.65
 50
273.43363036244932
 51
0.0
  0
LINE
  5
2E45
  8
0
 10
221.7499999999998
 20
47.599999999999781
 30
0.0
 11
220.4499999999999
 21
47.599999999999781
 31
0.0
  0
LINE
  5
2E46
  8
0
 10
221.7499999999998
 20
45.80716894889099
 30
0.0
 11
221.7499999999998
 21
47.599999999999781
 31
0.0
  0
LINE
  5
2E47
  8
0
 10
220.4499999999999
 20
48.89999999999975
 30
0.0
 11
220.4499999999999
 21
47.599999999999781
 31
0.0
  0
ARC
  5
2E48
  8
0
 10
221.09999999999991
 20
50.692831051108662
 30
0.0
 40
0.65
 50
0.0
 51
86.566369637550537
  0
LINE
  5
2E49
  8
0
 10
221.1389299889729
 20
51.341664200661512
 30
0.0
 11
218.4999999999998
 21
51.499999999999773
 31
0.0
  0
LINE
  5
302E
  8
0
 10
202.03772654946371
 20
-54.948394907271748
 30
0.0
 11
195.80315830118269
 21
-55.852432442832317
 31
0.0
  0
LINE
  5
302F
  8
0
 10
202.0377265494615
 20
-58.65881777485324
 30
0.0
 11
195.8031583011805
 21
-59.562855310413802
 31
0.0
  0
ARC
  5
3030
  8
0
 10
202.14697997255189
 20
-68.160859343328923
 30
0.0
 40
14.93141625830204
 50
56.894423584626963
 51
123.1055764153712
  0
ARC
  5
3031
  8
0
 10
202.0377265494638
 20
-68.192137778978292
 30
0.0
 40
17.005580066645241
 50
54.200970993750452
 51
125.7990290062495
  0
ARC
  5
3032
  8
0
 10
202.03772654946351
 20
-51.650378869081941
 30
0.0
 40
12.60815275542957
 50
33.857998802880211
 51
146.14200119711711
  0
LINE
  5
3033
  8
0
 10
212.9999999999998
 20
-67.941176470588204
 30
0.0
 11
190.9999999999998
 21
-67.941176470588204
 31
0.0
  0
LINE
  5
3034
  8
0
 10
212.9999999999998
 20
-71.176470588235276
 30
0.0
 11
190.9999999999998
 21
-71.176470588235276
 31
0.0
  0
ARC
  5
3035
  8
0
 10
201.99999999999969
 20
-60.216931461690073
 30
0.0
 40
14.194833244192219
 50
247.2350767444407
 51
292.76492325555921
  0
LINE
  5
3036
  8
0
 10
207.49270697594449
 20
-74.411764705882305
 30
0.0
 11
196.5072930240552
 21
-74.411764705882305
 31
0.0
  0
ARC
  5
3037
  8
0
 10
202.03772654946371
 20
-54.225102381545113
 30
0.0
 40
8.6696087345522432
 50
245.3219483027552
 51
294.6780516972446
  0
ARC
  5
3038
  8
0
 10
202.03772654946371
 20
-69.147022374327179
 30
0.0
 40
8.5330334904247067
 50
65.122103603562763
 51
114.87789639643719
  0
LINE
  5
3039
  8
0
 10
202.0377265494615
 20
-64.736398831964152
 30
0.0
 11
195.8031583011805
 21
-63.832361296403647
 31
0.0
  0
LINE
  5
303A
  8
0
 10
191.56765271085371
 20
-55.841823036288567
 30
0.0
 11
191.56765271085371
 21
-44.625916632134178
 31
0.0
  0
LINE
  5
303B
  8
0
 10
191.56765271085359
 20
-55.841823036288659
 30
0.0
 11
191.56765271085359
 21
-44.625916632134263
 31
0.0
  0
LINE
  5
303C
  8
0
 10
181.2578003880736
 20
-54.000000000000007
 30
0.0
 11
182.91851683416019
 21
-53.999999999999993
 31
0.0
  0
LINE
  5
303D
  8
0
 10
190.9999999999998
 20
-67.941176470588204
 30
0.0
 11
190.9999999999998
 21
-55.000000000000021
 31
0.0
  0
LINE
  5
303E
  8
0
 10
192.82574397438839
 20
-61.697608303408693
 30
0.0
 11
192.8257439743881
 21
-57.987185435828799
 31
0.0
  0
LINE
  5
303F
  8
0
 10
195.8031583011805
 20
-59.562855310413802
 30
0.0
 11
192.82574397438611
 21
-61.69760830341022
 31
0.0
  0
ARC
  5
3040
  8
0
 10
193.75364651202759
 20
-70.43025363876427
 30
0.0
 40
3.981511067118523
 50
226.24243683463359
 51
313.75756316536399
  0
LINE
  5
3041
  8
0
 10
190.9999999999998
 20
-73.305990286021853
 30
0.0
 11
190.9999999999998
 21
-71.176470588235276
 31
0.0
  0
LINE
  5
3042
  8
0
 10
196.5072930240552
 20
-74.411764705882305
 30
0.0
 11
193.7536465120275
 21
-74.411764705882305
 31
0.0
  0
LINE
  5
3043
  8
0
 10
193.18054511163851
 20
-71.176470588235276
 30
0.0
 11
193.18054511163851
 21
-67.941176470588204
 31
0.0
  0
LINE
  5
3044
  8
0
 10
195.80315830118019
 20
-63.83236129640671
 30
0.0
 11
192.82574397438611
 21
-61.69760830341022
 31
0.0
  0
ARC
  5
3045
  8
0
 10
198.67431573748601
 20
-61.76473512713315
 30
0.0
 40
0.4243268062755158
 50
122.23224679872889
 51
232.8392969757243
  0
LINE
  5
3046
  8
0
 10
191.4473273249809
 20
-55.000000000000021
 30
0.0
 11
188.4999999999998
 21
-55.000000000000021
 31
0.0
  0
LINE
  5
3047
  8
0
 10
188.4999999999998
 20
-54.00000000000005
 30
0.0
 11
185.4999999999998
 21
-54.00000000000005
 31
0.0
  0
LINE
  5
3048
  8
0
 10
195.80315830118269
 20
-55.852432442832317
 30
0.0
 11
192.8257439743881
 21
-57.987185435828799
 31
0.0
  0
LINE
  5
3049
  8
0
 10
193.9916869162561
 20
-57.151225132146237
 30
0.0
 11
193.9916869162561
 21
-55.653326147505659
 31
0.0
  0
ARC
  5
304A
  8
0
 10
193.9469199377441
 20
-55.888132888009523
 30
0.0
 40
2.3797178696897441
 50
141.27305377249331
 51
241.89179587316031
  0
LINE
  5
304B
  8
0
 10
195.80315830118269
 20
-55.852432442832317
 30
0.0
 11
195.80315830118269
 21
-59.562855310413468
 31
0.0
  0
ARC
  5
304C
  8
0
 10
221.09999999999991
 20
-45.80716894889099
 30
0.0
 40
0.65
 50
0.0
 51
86.566369637550423
  0
LINE
  5
304D
  8
0
 10
212.50780038807349
 20
-44.625916632134569
 30
0.0
 11
212.50780038807349
 21
-55.653326147505638
 31
0.0
  0
LINE
  5
304E
  8
0
 10
212.50780038807369
 20
-44.625916632134647
 30
0.0
 11
212.50780038807369
 21
-55.653326147505709
 31
0.0
  0
LINE
  5
304F
  8
0
 10
218.4999999999998
 20
-54.0
 30
0.0
 11
215.4999999999998
 21
-54.0
 31
0.0
  0
LINE
  5
3050
  8
0
 10
212.9999999999998
 20
-67.941176470588204
 30
0.0
 11
212.9999999999998
 21
-55.000000000000021
 31
0.0
  0
LINE
  5
3051
  8
0
 10
208.27229479774701
 20
-59.562855310413802
 30
0.0
 11
211.2497091245414
 21
-61.69760830341022
 31
0.0
  0
LINE
  5
3052
  8
0
 10
211.2497091245414
 20
-61.697608303407172
 30
0.0
 11
211.24970912453909
 21
-57.987185435828799
 31
0.0
  0
LINE
  5
3053
  8
0
 10
210.24635348797159
 20
-74.411764705882305
 30
0.0
 11
207.49270697594449
 21
-74.411764705882305
 31
0.0
  0
ARC
  5
3054
  8
0
 10
210.24635348797159
 20
-70.430253638763233
 30
0.0
 40
3.9815110671192571
 50
226.2424368346451
 51
313.75756316535711
  0
LINE
  5
3055
  8
0
 10
208.27229479774701
 20
-63.832361296403647
 30
0.0
 11
211.2497091245414
 21
-61.697608303407172
 31
0.0
  0
LINE
  5
3056
  8
0
 10
207.49270697594449
 20
-71.176470588235276
 30
0.0
 11
207.49270697594449
 21
-73.305990286022308
 31
0.0
  0
LINE
  5
3057
  8
0
 10
202.03772654946579
 20
-64.736398831964152
 30
0.0
 11
208.27229479774701
 21
-63.832361296403647
 31
0.0
  0
ARC
  5
3058
  8
0
 10
205.40113736144141
 20
-61.76473512713315
 30
0.0
 40
0.4243268062755158
 50
307.16070302427562
 51
57.767753201270999
  0
LINE
  5
3059
  8
0
 10
212.9999999999998
 20
-73.305990286022592
 30
0.0
 11
212.9999999999998
 21
-71.176470588235276
 31
0.0
  0
LINE
  5
305A
  8
0
 10
210.81945488836101
 20
-71.176470588235276
 30
0.0
 11
210.81945488836101
 21
-67.941176470588204
 31
0.0
  0
LINE
  5
305B
  8
0
 10
208.27229479774471
 20
-55.852432442832317
 30
0.0
 11
211.24970912453909
 21
-57.987185435828799
 31
0.0
  0
LINE
  5
305C
  8
0
 10
202.03772654946579
 20
-58.65881777485324
 30
0.0
 11
208.27229479774701
 21
-59.562855310413802
 31
0.0
  0
LINE
  5
305D
  8
0
 10
202.03772654946371
 20
-54.948394907271748
 30
0.0
 11
208.27229479774471
 21
-55.852432442832317
 31
0.0
  0
LINE
  5
305E
  8
0
 10
202.03772654946371
 20
-54.948394907271748
 30
0.0
 11
202.03772654946371
 21
-58.658817774852928
 31
0.0
  0
LINE
  5
305F
  8
0
 10
208.27229479774471
 20
-55.852432442832317
 30
0.0
 11
208.27229479774471
 21
-59.562855310413468
 31
0.0
  0
LINE
  5
3060
  8
0
 10
215.4999999999998
 20
-55.000000000000021
 30
0.0
 11
212.50780038807349
 21
-55.000000000000007
 31
0.0
  0
ARC
  5
3061
  8
0
 10
210.128532953101
 20
-55.888132845362641
 30
0.0
 40
2.3797180053420761
 50
298.10820806217282
 51
38.726942292199382
  0
LINE
  5
3062
  8
0
 10
210.30227302884799
 20
-57.151225132146237
 30
0.0
 11
210.30227302884799
 21
-55.653326147505659
 31
0.0
  0
LINE
  5
3063
  8
0
 10
221.7499999999998
 20
-50.692831051108662
 30
0.0
 11
221.7499999999998
 21
-48.89999999999975
 31
0.0
  0
LINE
  5
3064
  8
0
 10
220.4499999999999
 20
-48.89999999999975
 30
0.0
 11
220.4499999999999
 21
-47.599999999999781
 31
0.0
  0
LINE
  5
3065
  8
0
 10
221.7499999999998
 20
-47.599999999999781
 30
0.0
 11
220.4499999999999
 21
-47.599999999999781
 31
0.0
  0
LINE
  5
3066
  8
0
 10
221.7499999999998
 20
-48.89999999999975
 30
0.0
 11
220.4499999999999
 21
-48.89999999999975
 31
0.0
  0
LINE
  5
3067
  8
0
 10
221.13892998897299
 20
-51.341664200661512
 30
0.0
 11
218.4999999999998
 21
-51.499999999999773
 31
0.0
  0
ARC
  5
3068
  8
0
 10
221.09999999999991
 20
-50.692831051108662
 30
0.0
 40
0.65
 50
273.43363036244961
 51
0.0
  0
LINE
  5
3069
  8
0
 10
221.7499999999998
 20
-45.80716894889099
 30
0.0
 11
221.7499999999998
 21
-47.599999999999781
 31
0.0
  0
LINE
  5
306A
  8
0
 10
221.13892998897299
 20
-45.158335799338253
 30
0.0
 11
218.4999999999998
 21
-44.999999999999773
 31
0.0
  0
ENDSEC
  0
EOF
