  0
SECTION
  2
HEADER
  9
$ACADVER
  1
AC1009
  9
$INSBASE
 10
0.0
 20
0.0
 30
0.0
  9
$EXTMIN
 10
-100.0
 20
-69.169502786031643
 30
-0.00000001
  9
$EXTMAX
 10
246.9379199431493
 20
53.999999999999993
 30
0.00000001
  9
$LIMMIN
 10
0.0
 20
0.0
  9
$LIMMAX
 10
410.0
 20
287.0
  9
$ORTHOMODE
 70
     1
  9
$REGENMODE
 70
     1
  9
$FILLMODE
 70
     1
  9
$QTEXTMODE
 70
     0
  9
$MIRRTEXT
 70
     0
  9
$DRAGMODE
 70
     2
  9
$LTSCALE
 40
25.0
  9
$OSMODE
 70
    39
  9
$ATTMODE
 70
     1
  9
$TEXTSIZE
 40
8.0
  9
$TRACEWID
 40
1.0
  9
$TEXTSTYLE
  7
SIMPLEX
  9
$CLAYER
  8
MITTELLI
  9
$CELTYPE
  6
BYLAYER
  9
$CECOLOR
 62
   256
  9
$DIMSCALE
 40
1.0
  9
$DIMASZ
 40
7.0
  9
$DIMEXO
 40
0.1
  9
$DIMDLI
 40
7.0
  9
$DIMRND
 40
0.0
  9
$DIMDLE
 40
0.0
  9
$DIMEXE
 40
1.8
  9
$DIMTP
 40
1.0
  9
$DIMTM
 40
1.0
  9
$DIMTXT
 40
3.5
  9
$DIMCEN
 40
1.5
  9
$DIMTSZ
 40
0.0
  9
$DIMTOL
 70
     0
  9
$DIMLIM
 70
     0
  9
$DIMTIH
 70
     0
  9
$DIMTOH
 70
     0
  9
$DIMSE1
 70
     0
  9
$DIMSE2
 70
     0
  9
$DIMTAD
 70
     1
  9
$DIMZIN
 70
     0
  9
$DIMBLK
  1

  9
$DIMASO
 70
     0
  9
$DIMSHO
 70
     1
  9
$DIMPOST
  1

  9
$DIMAPOST
  1

  9
$DIMALT
 70
     0
  9
$DIMALTD
 70
     2
  9
$DIMALTF
 40
25.399999999999999
  9
$DIMLFAC
 40
1.0
  9
$DIMTOFL
 70
     0
  9
$DIMTVP
 40
0.0
  9
$DIMTIX
 70
     0
  9
$DIMSOXD
 70
     0
  9
$DIMSAH
 70
     0
  9
$DIMBLK1
  1

  9
$DIMBLK2
  1

  9
$DIMSTYLE
  2
STANDARD
  9
$DIMCLRD
 70
     0
  9
$DIMCLRE
 70
     0
  9
$DIMCLRT
 70
     0
  9
$DIMTFAC
 40
1.0
  9
$DIMGAP
 40
0.09
  9
$LUNITS
 70
     2
  9
$LUPREC
 70
     4
  9
$SKETCHINC
 40
0.1
  9
$FILLETRAD
 40
0.0
  9
$AUNITS
 70
     0
  9
$AUPREC
 70
     0
  9
$MENU
  1
c:/acad/acad
  9
$ELEVATION
 40
0.0
  9
$PELEVATION
 40
0.0
  9
$THICKNESS
 40
0.0
  9
$LIMCHECK
 70
     0
  9
$BLIPMODE
 70
     0
  9
$CHAMFERA
 40
2.0
  9
$CHAMFERB
 40
2.0
  9
$SKPOLY
 70
     0
  9
$TDCREATE
 40
2448364.5747825229
  9
$TDUPDATE
 40
2452678.4656841899
  9
$TDINDWG
 40
0.2002988773
  9
$TDUSRTIMER
 40
0.2002988773
  9
$USRTIMER
 70
     1
  9
$ANGBASE
 50
0.0
  9
$ANGDIR
 70
     0
  9
$PDMODE
 70
     0
  9
$PDSIZE
 40
0.0
  9
$PLINEWID
 40
0.0
  9
$COORDS
 70
     0
  9
$SPLFRAME
 70
     0
  9
$SPLINETYPE
 70
     6
  9
$SPLINESEGS
 70
     8
  9
$ATTDIA
 70
     0
  9
$ATTREQ
 70
     1
  9
$HANDLING
 70
  4097
  9
$HANDSEED
  5
1CD
  9
$SURFTAB1
 70
     6
  9
$SURFTAB2
 70
     6
  9
$SURFTYPE
 70
     6
  9
$SURFU
 70
     6
  9
$SURFV
 70
     6
  9
$UCSNAME
  2

  9
$UCSORG
 10
0.0
 20
0.0
 30
0.0
  9
$UCSXDIR
 10
1.0
 20
0.0
 30
0.0
  9
$UCSYDIR
 10
0.0
 20
1.0
 30
0.0
  9
$PUCSNAME
  2

  9
$PUCSORG
 10
0.0
 20
0.0
 30
0.0
  9
$PUCSXDIR
 10
1.0
 20
0.0
 30
0.0
  9
$PUCSYDIR
 10
0.0
 20
1.0
 30
0.0
  9
$USERI1
 70
     0
  9
$USERI2
 70
     0
  9
$USERI3
 70
     0
  9
$USERI4
 70
     0
  9
$USERI5
 70
     0
  9
$USERR1
 40
0.0
  9
$USERR2
 40
0.0
  9
$USERR3
 40
0.0
  9
$USERR4
 40
0.0
  9
$USERR5
 40
0.0
  9
$WORLDVIEW
 70
     1
  9
$SHADEDGE
 70
     3
  9
$SHADEDIF
 70
    70
  9
$TILEMODE
 70
     1
  9
$MAXACTVP
 70
    48
  9
$PLIMCHECK
 70
     0
  9
$PEXTMIN
 10
1.0000000000000000E+020
 20
1.0000000000000000E+020
 30
1.0000000000000000E+020
  9
$PEXTMAX
 10
-1.0000000000000000E+020
 20
-1.0000000000000000E+020
 30
-1.0000000000000000E+020
  9
$PLIMMIN
 10
0.0
 20
0.0
  9
$PLIMMAX
 10
12.0
 20
9.0
  9
$UNITMODE
 70
     0
  9
$VISRETAIN
 70
     1
  9
$PLINEGEN
 70
     0
  9
$PSLTSCALE
 70
     0
  0
ENDSEC
  0
SECTION
  2
TABLES
  0
TABLE
  2
VPORT
 70
     4
  0
VPORT
  2
*ACTIVE
 70
     0
 10
0.0
 20
0.0
 11
1.0
 21
1.0
 12
101.0689519475078
 22
-5.3733668146577989
 13
0.0
 23
0.0
 14
0.5
 24
0.5
 15
10.0
 25
10.0
 16
0.0
 26
0.0
 36
1.0
 17
0.0
 27
0.0
 37
0.0
 40
145.8037580069354
 41
2.126099706744867
 42
50.0
 43
0.0
 44
0.0
 50
0.0
 51
0.0
 71
     0
 72
   100
 73
     1
 74
     0
 75
     0
 76
     0
 77
     0
 78
     0
  0
ENDTAB
  0
TABLE
  2
LTYPE
 70
     2
  0
LTYPE
  2
CONTINUOUS
 70
     0
  3
Solid line
 72
    65
 73
     0
 40
0.0
  0
LTYPE
  2
MITTKLEIN
 70
     0
  3
__ . __ . ___ 
 72
    65
 73
     4
 40
0.45
 49
0.25
 49
-0.1
 49
0.0
 49
-0.1
  0
ENDTAB
  0
TABLE
  2
LAYER
 70
     2
  0
LAYER
  2
0
 70
     0
 62
     7
  6
CONTINUOUS
  0
LAYER
  2
MITTELLI
 70
     0
 62
     1
  6
MITTKLEIN
  0
ENDTAB
  0
TABLE
  2
STYLE
 70
     2
  0
STYLE
  2
TXT
 70
     0
 40
0.0
 41
1.0
 50
0.0
 71
     0
 42
2.5
  3
8txt
  4

  0
STYLE
  2
SIMPLEX
 70
     0
 40
0.0
 41
1.0
 50
0.0
 71
     0
 42
8.0
  3
8simplex
  4

  0
ENDTAB
  0
TABLE
  2
VIEW
 70
     0
  0
ENDTAB
  0
TABLE
  2
UCS
 70
     0
  0
ENDTAB
  0
TABLE
  2
APPID
 70
     1
  0
APPID
  2
ACAD
 70
     0
  0
ENDTAB
  0
TABLE
  2
DIMSTYLE
 70
     1
  0
DIMSTYLE
  2
STANDARD
 70
     0
  3

  4

  5

  6

  7

 40
1.0
 41
0.18
 42
0.0625
 43
0.38
 44
0.18
 45
0.0
 46
0.0
 47
0.0
 48
0.0
140
0.18
141
0.09
142
0.0
143
25.399999999999999
144
1.0
145
0.0
146
1.0
147
0.09
 71
     0
 72
     0
 73
     1
 74
     1
 75
     0
 76
     0
 77
     0
 78
     0
170
     0
171
     2
172
     0
173
     0
174
     0
175
     0
176
     0
177
     0
178
     0
  0
ENDTAB
  0
ENDSEC
  0
SECTION
  2
BLOCKS
  0
BLOCK
  8
0
  2
$MODEL_SPACE
 70
     0
 10
0.0
 20
0.0
 30
0.0
  3
$MODEL_SPACE
  1

  0
ENDBLK
  5
9
  8
0
  0
BLOCK
 67
     1
  8
0
  2
$PAPER_SPACE
 70
     0
 10
0.0
 20
0.0
 30
0.0
  3
$PAPER_SPACE
  1

  0
ENDBLK
  5
E
 67
     1
  8
0
  0
ENDSEC
  0
SECTION
  2
ENTITIES
  0
LINE
  5
27
  8
0
 10
-49.0
 20
7.9999999999999902
 30
0.0
 11
-1.5
 21
7.9999999999999902
 31
0.0
  0
LINE
  5
28
  8
0
 10
-49.0
 20
-8.0000000000000089
 30
0.0
 11
-1.5
 21
-8.0000000000000089
 31
0.0
  0
LINE
  5
29
  8
MITTELLI
 10
-52.58362418572716
 20
0.0000000000000471
 30
0.0
 11
246.9379199431493
 21
-0.0000000000000097
 31
0.0
  0
LINE
  5
2A
  8
0
 10
-49.0
 20
7.9999999999999902
 30
0.0
 11
-49.0
 21
-8.0000000000000089
 31
0.0
  0
LINE
  5
2B
  8
0
 10
-50.0
 20
-7.0000000000001226
 30
0.0
 11
-50.000000000000057
 21
6.9999999999999902
 31
0.0
  0
POINT
  5
2C
  8
0
 10
-50.0
 20
-7.0000000000000089
 30
0.0
  0
LINE
  5
2D
  8
0
 10
-49.0
 20
-8.0000000000000089
 30
0.0
 11
-50.0
 21
-7.0000000000001226
 31
0.0
  0
LINE
  5
2E
  8
0
 10
-42.5
 20
-2.5000000000000089
 30
0.0
 11
-27.5
 21
-2.5000000000000089
 31
0.0
  0
LINE
  5
2F
  8
0
 10
-42.5
 20
2.4999999999999898
 30
0.0
 11
-27.5
 21
2.4999999999999898
 31
0.0
  0
POINT
  5
30
  8
0
 10
-50.0
 20
2.4999999999999898
 30
0.0
  0
POINT
  5
31
  8
0
 10
-50.0
 20
6.9999999999999902
 30
0.0
  0
LINE
  5
32
  8
0
 10
-49.0
 20
7.9999999999999902
 30
0.0
 11
-50.000000000000057
 21
6.9999999999999902
 31
0.0
  0
ARC
  5
33
  8
0
 10
-42.5
 20
-0.0000000000000097
 30
0.0
 40
2.5
 50
90.0
 51
270.0
  0
ARC
  5
34
  8
0
 10
-27.5
 20
-0.0000000000000097
 30
0.0
 40
2.5
 50
269.99996170827569
 51
90.000038291724223
  0
TEXT
  5
61
  8
0
 10
14.797372426580949
 20
-48.716224663609417
 30
0.0
 40
5.1200000000000001
  1
SM 107.2.18 MBHP
  7
SIMPLEX
  0
LINE
  5
62
  8
0
 10
0.0
 20
-54.000000000000021
 30
0.0
 11
0.0
 21
53.999999999999993
 31
0.0
  0
LINE
  5
63
  8
0
 10
9.0
 20
-54.000000000000007
 30
0.0
 11
9.0
 21
53.999999999999993
 31
0.0
  0
LINE
  5
67
  8
0
 10
188.49999999999989
 20
53.999999999999993
 30
0.0
 11
188.49999999999989
 21
-54.000000000000007
 31
0.0
  0
LINE
  5
68
  8
0
 10
239.99999999999989
 20
53.999999999999993
 30
0.0
 11
239.99999999999989
 21
-54.000000000000007
 31
0.0
  0
LINE
  5
69
  8
0
 10
130.99999999999989
 20
53.999999999999993
 30
0.0
 11
130.99999999999989
 21
-54.000000000000007
 31
0.0
  0
LINE
  5
6A
  8
0
 10
134.49999999999989
 20
53.999999999999993
 30
0.0
 11
134.49999999999989
 21
-54.000000000000007
 31
0.0
  0
POLYLINE
  5
6B
  8
0
 66
     1
 10
0.0
 20
0.0
 30
0.0
  0
VERTEX
  5
1C9
  8
0
 10
9.0
 20
53.999999999999993
 30
0.0
  0
VERTEX
  5
1CA
  8
0
 10
242.99999999999989
 20
53.999999999999993
 30
0.0
  0
VERTEX
  5
1CB
  8
0
 10
242.99999999999989
 20
-54.000000000000007
 30
0.0
  0
SEQEND
  5
1CC
  8
0
  0
LINE
  5
6D
  8
0
 10
9.0
 20
-50.596442562694058
 30
0.0
 11
0.0
 21
-50.596442562694058
 31
0.0
  0
LINE
  5
8A
  8
0
 10
-1.5
 20
-30.000000000000011
 30
0.0
 11
-1.5
 21
29.999999999999989
 31
0.0
  0
LINE
  5
8B
  8
0
 10
-1.5
 20
-30.000000000000011
 30
0.0
 11
0.0
 21
-30.000000000000011
 31
0.0
  0
LINE
  5
8C
  8
0
 10
-1.5
 20
29.999999999999989
 30
0.0
 11
0.0
 21
29.999999999999989
 31
0.0
  0
POINT
  5
8D
  8
0
 10
0.0
 20
53.999999999999993
 30
0.0
  0
LINE
  5
8E
  8
0
 10
0.0
 20
53.999999999999993
 30
0.0
 11
9.0
 21
53.999999999999993
 31
0.0
  0
LINE
  5
8F
  8
0
 10
9.0
 20
50.59644256269393
 30
0.0
 11
0.0
 21
50.59644256269393
 31
0.0
  0
ARC
  5
92
  8
0
 10
245.59999999999991
 20
50.692831051108662
 30
0.0
 40
0.65
 50
0.0
 51
86.566369637550537
  0
LINE
  5
93
  8
0
 10
246.24999999999989
 20
48.899999999999743
 30
0.0
 11
244.94999999999979
 21
48.899999999999743
 31
0.0
  0
LINE
  5
94
  8
0
 10
246.24999999999989
 20
50.692831051108662
 30
0.0
 11
246.24999999999989
 21
48.899999999999743
 31
0.0
  0
ARC
  5
95
  8
0
 10
245.59999999999991
 20
45.807168948890983
 30
0.0
 40
0.65
 50
273.43363036244938
 51
0.0
  0
LINE
  5
96
  8
0
 10
246.24999999999989
 20
47.599999999999788
 30
0.0
 11
244.94999999999979
 21
47.599999999999788
 31
0.0
  0
LINE
  5
97
  8
0
 10
246.24999999999989
 20
45.807168948890983
 30
0.0
 11
246.24999999999989
 21
47.599999999999788
 31
0.0
  0
LINE
  5
98
  8
0
 10
244.94999999999979
 20
48.899999999999743
 30
0.0
 11
244.94999999999979
 21
47.599999999999788
 31
0.0
  0
LINE
  5
99
  8
0
 10
245.63892998897299
 20
45.158335799338253
 30
0.0
 11
242.99999999999989
 21
44.999999999999758
 31
0.0
  0
LINE
  5
9A
  8
0
 10
245.63892998897299
 20
51.341664200661512
 30
0.0
 11
242.99999999999989
 21
51.499999999999773
 31
0.0
  0
LINE
  5
11A
  8
0
 10
233.56656981828971
 20
-66.641252321692718
 30
0.0
 11
216.3744666607875
 21
-66.641252321692718
 31
0.0
  0
ARC
  5
11B
  8
0
 10
224.97051823953851
 20
-58.076819266136113
 30
0.0
 40
11.092683519895131
 50
247.2350767444407
 51
292.76492325555921
  0
LINE
  5
11C
  8
0
 10
229.262844827919
 20
-69.169502786031273
 30
0.0
 11
220.6781916511579
 21
-69.169502786031273
 31
0.0
  0
LINE
  5
11D
  8
0
 10
224.9999999999979
 20
-58.65881777485324
 30
0.0
 11
218.7654317517167
 21
-59.562855310413809
 31
0.0
  0
LINE
  5
11E
  8
0
 10
224.9999999999979
 20
-64.736398831964181
 30
0.0
 11
218.7654317517167
 21
-63.832361296403661
 31
0.0
  0
ARC
  5
11F
  8
0
 10
225.0
 20
-69.147022374327193
 30
0.0
 40
8.5330334904247067
 50
65.122103603562763
 51
114.87789639643719
  0
ARC
  5
120
  8
0
 10
225.0
 20
-54.225102381545121
 30
0.0
 40
8.6696087345522432
 50
245.3219483027535
 51
294.67805169724278
  0
ARC
  5
121
  8
0
 10
224.9999999999998
 20
-51.650378869081948
 30
0.0
 40
12.60815275542957
 50
33.857998802880211
 51
146.14200119711521
  0
ARC
  5
122
  8
0
 10
225.00000000000011
 20
-68.192137778978307
 30
0.0
 40
17.005580066645241
 50
54.200970993750452
 51
125.7990290062495
  0
LINE
  5
123
  8
0
 10
225.0
 20
-54.948394907271762
 30
0.0
 11
218.76543175171901
 21
-55.852432442832331
 31
0.0
  0
ARC
  5
124
  8
0
 10
225.10925342308821
 20
-68.160859343328951
 30
0.0
 40
14.93141625830204
 50
56.894423584628768
 51
123.1055764153712
  0
LINE
  5
125
  8
0
 10
214.52992616138991
 20
-55.84182303628868
 30
0.0
 11
214.52992616138991
 21
-44.62591663213427
 31
0.0
  0
LINE
  5
126
  8
0
 10
214.52992616138999
 20
-55.841823036288588
 30
0.0
 11
214.52992616138999
 21
-44.625916632134192
 31
0.0
  0
LINE
  5
127
  8
0
 10
216.3744666607875
 20
-68.305385154432713
 30
0.0
 11
216.3744666607875
 21
-66.641252321692718
 31
0.0
  0
LINE
  5
128
  8
0
 10
220.6781916511579
 20
-69.169502786031273
 30
0.0
 11
218.52632915597289
 21
-69.169502786031273
 31
0.0
  0
ARC
  5
129
  8
0
 10
218.526329155973
 20
-66.058114195639007
 30
0.0
 40
3.1113885903926328
 50
226.24243683463359
 51
313.75756316536598
  0
ARC
  5
12A
  8
0
 10
216.90919338828041
 20
-55.888132888009523
 30
0.0
 40
2.3797178696897441
 50
141.27305377249499
 51
241.89179587316031
  0
LINE
  5
12B
  8
0
 10
215.7880174249247
 20
-61.6976083034087
 30
0.0
 11
215.78801742492439
 21
-57.98718543582882
 31
0.0
  0
LINE
  5
12C
  8
0
 10
218.7654317517167
 20
-59.562855310413809
 30
0.0
 11
215.7880174249224
 21
-61.697608303410242
 31
0.0
  0
LINE
  5
12D
  8
0
 10
218.76543175171651
 20
-63.832361296406717
 30
0.0
 11
215.7880174249224
 21
-61.697608303410242
 31
0.0
  0
LINE
  5
12E
  8
0
 10
220.70083007497001
 20
-64.113001857354163
 30
0.0
 11
216.3744666607875
 21
-64.113001857354163
 31
0.0
  0
LINE
  5
12F
  8
0
 10
218.07847377437301
 20
-66.641252321692718
 30
0.0
 11
218.07847377437301
 21
-64.113001857354163
 31
0.0
  0
LINE
  5
130
  8
0
 10
216.3744666607875
 20
-64.113001857354163
 30
0.0
 11
216.3744666607875
 21
-62.118081950704827
 31
0.0
  0
ARC
  5
131
  8
0
 10
221.6365891880223
 20
-61.764735127133171
 30
0.0
 40
0.4243268062755158
 50
122.23224679872889
 51
232.8392969757243
  0
LINE
  5
132
  8
0
 10
218.76543175171901
 20
-55.852432442832331
 30
0.0
 11
215.78801742492439
 21
-57.98718543582882
 31
0.0
  0
LINE
  5
133
  8
0
 10
216.95396036679239
 20
-57.151225132146259
 30
0.0
 11
216.95396036679239
 21
-55.653326147505673
 31
0.0
  0
LINE
  5
134
  8
0
 10
218.76543175171901
 20
-55.852432442832331
 30
0.0
 11
218.76543175171901
 21
-59.562855310413482
 31
0.0
  0
LINE
  5
135
  8
0
 10
235.47007383861001
 20
-44.625916632134668
 30
0.0
 11
235.47007383861001
 21
-55.65332614750573
 31
0.0
  0
LINE
  5
136
  8
0
 10
235.47007383860989
 20
-44.625916632134583
 30
0.0
 11
235.47007383860989
 21
-55.653326147505659
 31
0.0
  0
LINE
  5
137
  8
0
 10
242.99999999999989
 20
-54.000000000000007
 30
0.0
 11
235.47007383860981
 21
-54.000000000000007
 31
0.0
  0
LINE
  5
138
  8
0
 10
242.99999999999989
 20
-54.000000000000007
 30
0.0
 11
240.00000000000011
 21
-54.000000000000007
 31
0.0
  0
LINE
  5
139
  8
0
 10
229.262844827919
 20
-66.641252321692718
 30
0.0
 11
229.262844827919
 21
-68.305385154433054
 31
0.0
  0
LINE
  5
13A
  8
0
 10
233.56656981828971
 20
-68.305385154433282
 30
0.0
 11
233.56656981828971
 21
-66.641252321692718
 31
0.0
  0
ARC
  5
13B
  8
0
 10
231.41470732310401
 20
-66.058114195638197
 30
0.0
 40
3.111388590393207
 50
226.24243683464289
 51
313.75756316535711
  0
LINE
  5
13C
  8
0
 10
231.41470732310401
 20
-69.169502786031273
 30
0.0
 11
229.262844827919
 21
-69.169502786031273
 31
0.0
  0
LINE
  5
13D
  8
0
 10
233.56656981828971
 20
-64.113001857354163
 30
0.0
 11
229.2991699250297
 21
-64.113001857354163
 31
0.0
  0
LINE
  5
13E
  8
0
 10
231.2345682482833
 20
-59.562855310413809
 30
0.0
 11
234.2119825750776
 21
-61.697608303410242
 31
0.0
  0
LINE
  5
13F
  8
0
 10
231.2345682482833
 20
-63.832361296403661
 30
0.0
 11
234.2119825750776
 21
-61.697608303407179
 31
0.0
  0
LINE
  5
140
  8
0
 10
231.23456824828099
 20
-55.852432442832331
 30
0.0
 11
234.21198257507541
 21
-57.98718543582882
 31
0.0
  0
LINE
  5
141
  8
0
 10
225.00000000000199
 20
-64.736398831964181
 30
0.0
 11
231.2345682482833
 21
-63.832361296403661
 31
0.0
  0
LINE
  5
142
  8
0
 10
231.8625627047042
 20
-66.641252321692718
 30
0.0
 11
231.8625627047042
 21
-64.113001857354163
 31
0.0
  0
ARC
  5
143
  8
0
 10
228.3634108119777
 20
-61.764735127133171
 30
0.0
 40
0.4243268062755158
 50
307.16070302427562
 51
57.767753201270999
  0
LINE
  5
144
  8
0
 10
225.00000000000199
 20
-58.65881777485324
 30
0.0
 11
231.2345682482833
 21
-59.562855310413809
 31
0.0
  0
LINE
  5
145
  8
0
 10
225.0
 20
-54.948394907271762
 30
0.0
 11
231.23456824828099
 21
-55.852432442832331
 31
0.0
  0
LINE
  5
146
  8
0
 10
225.0
 20
-54.948394907271762
 30
0.0
 11
225.0
 21
-58.658817774852949
 31
0.0
  0
LINE
  5
147
  8
0
 10
231.23456824828099
 20
-55.852432442832331
 30
0.0
 11
231.23456824828099
 21
-59.562855310413482
 31
0.0
  0
LINE
  5
148
  8
0
 10
234.2119825750776
 20
-61.697608303407179
 30
0.0
 11
234.21198257507541
 21
-57.98718543582882
 31
0.0
  0
LINE
  5
149
  8
0
 10
233.56656981828971
 20
-62.160357744044923
 30
0.0
 11
233.56656981828971
 21
-64.113001857354163
 31
0.0
  0
LINE
  5
14A
  8
0
 10
233.26454647938431
 20
-57.151225132146259
 30
0.0
 11
233.26454647938431
 21
-55.653326147505673
 31
0.0
  0
ARC
  5
14B
  8
0
 10
233.09080640363729
 20
-55.888132845362662
 30
0.0
 40
2.3797180053420761
 50
298.10820806217282
 51
38.726942292201343
  0
LINE
  5
14C
  8
0
 10
246.24999999999989
 20
-45.807168948890997
 30
0.0
 11
246.24999999999989
 21
-47.59999999999981
 31
0.0
  0
ARC
  5
14D
  8
0
 10
245.59999999999991
 20
-50.692831051108683
 30
0.0
 40
0.65
 50
273.43363036244961
 51
0.0
  0
LINE
  5
14E
  8
0
 10
246.24999999999989
 20
-48.899999999999757
 30
0.0
 11
244.94999999999979
 21
-48.899999999999757
 31
0.0
  0
LINE
  5
14F
  8
0
 10
246.24999999999989
 20
-47.59999999999981
 30
0.0
 11
244.94999999999979
 21
-47.59999999999981
 31
0.0
  0
LINE
  5
150
  8
0
 10
245.63892998897299
 20
-51.341664200661519
 30
0.0
 11
242.99999999999989
 21
-51.499999999999787
 31
0.0
  0
LINE
  5
151
  8
0
 10
244.94999999999979
 20
-48.899999999999757
 30
0.0
 11
244.94999999999979
 21
-47.59999999999981
 31
0.0
  0
LINE
  5
152
  8
0
 10
246.24999999999989
 20
-50.692831051108683
 30
0.0
 11
246.24999999999989
 21
-48.899999999999757
 31
0.0
  0
ARC
  5
153
  8
0
 10
245.59999999999991
 20
-45.807168948890997
 30
0.0
 40
0.65
 50
0.0
 51
86.566369637550423
  0
LINE
  5
154
  8
0
 10
245.63892998897299
 20
-45.158335799338268
 30
0.0
 11
242.99999999999989
 21
-44.99999999999978
 31
0.0
  0
LINE
  5
155
  8
0
 10
214.52992616138971
 20
-54.000000000000007
 30
0.0
 11
0.0
 21
-54.000000000000021
 31
0.0
  0
ENDSEC
  0
EOF
