  0
SECTION
  2
HEADER
  9
$ACADVER
  1
AC1009
  9
$INSBASE
 10
0.0
 20
0.0
 30
0.0
  9
$EXTMIN
 10
-52.595061362482397
 20
-71.78503359503236
 30
-0.0015258207003583
  9
$EXTMAX
 10
321.77017297103311
 20
54.009567657729569
 30
0.0000000349246037
  9
$LIMMIN
 10
0.0
 20
0.0
  9
$LIMMAX
 10
410.0
 20
287.0
  9
$ORTHOMODE
 70
     1
  9
$REGENMODE
 70
     1
  9
$FILLMODE
 70
     1
  9
$QTEXTMODE
 70
     0
  9
$MIRRTEXT
 70
     0
  9
$DRAGMODE
 70
     2
  9
$LTSCALE
 40
25.0
  9
$OSMODE
 70
    39
  9
$ATTMODE
 70
     1
  9
$TEXTSIZE
 40
8.0
  9
$TRACEWID
 40
1.0
  9
$TEXTSTYLE
  7
SIMPLEX
  9
$CLAYER
  8
MITTELLI
  9
$CELTYPE
  6
BYLAYER
  9
$CECOLOR
 62
   256
  9
$DIMSCALE
 40
1.0
  9
$DIMASZ
 40
7.0
  9
$DIMEXO
 40
0.1
  9
$DIMDLI
 40
7.0
  9
$DIMRND
 40
0.0
  9
$DIMDLE
 40
0.0
  9
$DIMEXE
 40
1.8
  9
$DIMTP
 40
1.0
  9
$DIMTM
 40
1.0
  9
$DIMTXT
 40
3.5
  9
$DIMCEN
 40
1.5
  9
$DIMTSZ
 40
0.0
  9
$DIMTOL
 70
     0
  9
$DIMLIM
 70
     0
  9
$DIMTIH
 70
     0
  9
$DIMTOH
 70
     0
  9
$DIMSE1
 70
     0
  9
$DIMSE2
 70
     0
  9
$DIMTAD
 70
     1
  9
$DIMZIN
 70
     0
  9
$DIMBLK
  1

  9
$DIMASO
 70
     0
  9
$DIMSHO
 70
     1
  9
$DIMPOST
  1

  9
$DIMAPOST
  1

  9
$DIMALT
 70
     0
  9
$DIMALTD
 70
     2
  9
$DIMALTF
 40
25.399999999999999
  9
$DIMLFAC
 40
1.0
  9
$DIMTOFL
 70
     0
  9
$DIMTVP
 40
0.0
  9
$DIMTIX
 70
     0
  9
$DIMSOXD
 70
     0
  9
$DIMSAH
 70
     0
  9
$DIMBLK1
  1

  9
$DIMBLK2
  1

  9
$DIMSTYLE
  2
STANDARD
  9
$DIMCLRD
 70
     0
  9
$DIMCLRE
 70
     0
  9
$DIMCLRT
 70
     0
  9
$DIMTFAC
 40
1.0
  9
$DIMGAP
 40
0.09
  9
$LUNITS
 70
     2
  9
$LUPREC
 70
     4
  9
$SKETCHINC
 40
0.1
  9
$FILLETRAD
 40
0.0
  9
$AUNITS
 70
     0
  9
$AUPREC
 70
     0
  9
$MENU
  1
c:/acad/acad
  9
$ELEVATION
 40
0.0
  9
$PELEVATION
 40
0.0
  9
$THICKNESS
 40
0.0
  9
$LIMCHECK
 70
     0
  9
$BLIPMODE
 70
     0
  9
$CHAMFERA
 40
2.0
  9
$CHAMFERB
 40
2.0
  9
$SKPOLY
 70
     0
  9
$TDCREATE
 40
2448364.5747825229
  9
$TDUPDATE
 40
2452655.6593674882
  9
$TDINDWG
 40
0.1893721759
  9
$TDUSRTIMER
 40
0.1893721759
  9
$USRTIMER
 70
     1
  9
$ANGBASE
 50
0.0
  9
$ANGDIR
 70
     0
  9
$PDMODE
 70
     0
  9
$PDSIZE
 40
0.0
  9
$PLINEWID
 40
0.0
  9
$COORDS
 70
     0
  9
$SPLFRAME
 70
     0
  9
$SPLINETYPE
 70
     6
  9
$SPLINESEGS
 70
     8
  9
$ATTDIA
 70
     0
  9
$ATTREQ
 70
     1
  9
$HANDLING
 70
  4097
  9
$HANDSEED
  5
E9
  9
$SURFTAB1
 70
     6
  9
$SURFTAB2
 70
     6
  9
$SURFTYPE
 70
     6
  9
$SURFU
 70
     6
  9
$SURFV
 70
     6
  9
$UCSNAME
  2

  9
$UCSORG
 10
0.0
 20
0.0
 30
0.0
  9
$UCSXDIR
 10
1.0
 20
0.0
 30
0.0
  9
$UCSYDIR
 10
0.0
 20
1.0
 30
0.0
  9
$PUCSNAME
  2

  9
$PUCSORG
 10
0.0
 20
0.0
 30
0.0
  9
$PUCSXDIR
 10
1.0
 20
0.0
 30
0.0
  9
$PUCSYDIR
 10
0.0
 20
1.0
 30
0.0
  9
$USERI1
 70
     0
  9
$USERI2
 70
     0
  9
$USERI3
 70
     0
  9
$USERI4
 70
     0
  9
$USERI5
 70
     0
  9
$USERR1
 40
0.0
  9
$USERR2
 40
0.0
  9
$USERR3
 40
0.0
  9
$USERR4
 40
0.0
  9
$USERR5
 40
0.0
  9
$WORLDVIEW
 70
     1
  9
$SHADEDGE
 70
     3
  9
$SHADEDIF
 70
    70
  9
$TILEMODE
 70
     1
  9
$MAXACTVP
 70
    64
  9
$PLIMCHECK
 70
     0
  9
$PEXTMIN
 10
1.0000000000000000E+020
 20
1.0000000000000000E+020
 30
1.0000000000000000E+020
  9
$PEXTMAX
 10
-1.0000000000000000E+020
 20
-1.0000000000000000E+020
 30
-1.0000000000000000E+020
  9
$PLIMMIN
 10
0.0
 20
0.0
  9
$PLIMMAX
 10
12.0
 20
9.0
  9
$UNITMODE
 70
     0
  9
$VISRETAIN
 70
     1
  9
$PLINEGEN
 70
     0
  9
$PSLTSCALE
 70
     0
  0
ENDSEC
  0
SECTION
  2
TABLES
  0
TABLE
  2
VPORT
 70
     6
  0
VPORT
  2
*ACTIVE
 70
     0
 10
0.0
 20
0.0
 11
1.0
 21
1.0
 12
134.5875558042753
 22
-8.8877329686513917
 13
0.0
 23
0.0
 14
0.5
 24
0.5
 15
10.0
 25
10.0
 16
0.0
 26
0.0
 36
1.0
 17
0.0
 27
0.0
 37
0.0
 40
182.1349451253088
 41
2.0726744186046511
 42
50.0
 43
0.0
 44
0.0
 50
0.0
 51
0.0
 71
     0
 72
   100
 73
     1
 74
     0
 75
     0
 76
     0
 77
     0
 78
     0
  0
ENDTAB
  0
TABLE
  2
LTYPE
 70
     2
  0
LTYPE
  2
CONTINUOUS
 70
     0
  3
Solid line
 72
    65
 73
     0
 40
0.0
  0
LTYPE
  2
MITTKLEIN
 70
     0
  3
__ . __ . ___ 
 72
    65
 73
     4
 40
0.45
 49
0.25
 49
-0.1
 49
0.0
 49
-0.1
  0
ENDTAB
  0
TABLE
  2
LAYER
 70
     2
  0
LAYER
  2
0
 70
     0
 62
     7
  6
CONTINUOUS
  0
LAYER
  2
MITTELLI
 70
     0
 62
     1
  6
MITTKLEIN
  0
ENDTAB
  0
TABLE
  2
STYLE
 70
     2
  0
STYLE
  2
TXT
 70
     0
 40
0.0
 41
1.0
 50
0.0
 71
     0
 42
2.5
  3
8txt
  4

  0
STYLE
  2
SIMPLEX
 70
     0
 40
0.0
 41
1.0
 50
0.0
 71
     0
 42
8.0
  3
8simplex
  4

  0
ENDTAB
  0
TABLE
  2
VIEW
 70
     0
  0
ENDTAB
  0
TABLE
  2
UCS
 70
     0
  0
ENDTAB
  0
TABLE
  2
APPID
 70
     1
  0
APPID
  2
ACAD
 70
     0
  0
ENDTAB
  0
TABLE
  2
DIMSTYLE
 70
     1
  0
DIMSTYLE
  2
STANDARD
 70
     0
  3

  4

  5

  6

  7

 40
1.0
 41
0.18
 42
0.0625
 43
0.38
 44
0.18
 45
0.0
 46
0.0
 47
0.0
 48
0.0
140
0.18
141
0.09
142
0.0
143
25.399999999999999
144
1.0
145
0.0
146
1.0
147
0.09
 71
     0
 72
     0
 73
     1
 74
     1
 75
     0
 76
     0
 77
     0
 78
     0
170
     0
171
     2
172
     0
173
     0
174
     0
175
     0
176
     0
177
     0
178
     0
  0
ENDTAB
  0
ENDSEC
  0
SECTION
  2
BLOCKS
  0
BLOCK
  8
0
  2
$MODEL_SPACE
 70
     0
 10
0.0
 20
0.0
 30
0.0
  3
$MODEL_SPACE
  1

  0
ENDBLK
  5
9
  8
0
  0
BLOCK
 67
     1
  8
0
  2
$PAPER_SPACE
 70
     0
 10
0.0
 20
0.0
 30
0.0
  3
$PAPER_SPACE
  1

  0
ENDBLK
  5
E
 67
     1
  8
0
  0
ENDSEC
  0
SECTION
  2
ENTITIES
  0
LINE
  5
27
  8
0
 10
-49.000000000000028
 20
8.0
 30
0.0
 11
-1.5
 21
8.0
 31
0.0
  0
LINE
  5
28
  8
0
 10
-49.000000000000028
 20
-8.0
 30
0.0
 11
-1.5
 21
-8.0
 31
0.0
  0
LINE
  5
29
  8
MITTELLI
 10
-52.583624185727238
 20
0.0
 30
0.0
 11
314.93791994314921
 21
0.0
 31
0.0
  0
LINE
  5
2A
  8
0
 10
-42.5
 20
-2.5
 30
0.0
 11
-27.5
 21
-2.5
 31
0.0
  0
LINE
  5
2B
  8
0
 10
-42.5
 20
2.5
 30
0.0
 11
-27.5
 21
2.5
 31
0.0
  0
ARC
  5
2C
  8
0
 10
-42.5
 20
0.0
 30
0.0
 40
2.5
 50
90.0
 51
270.0
  0
LINE
  5
2D
  8
0
 10
-49.000000000000028
 20
8.0
 30
0.0
 11
-49.000000000000028
 21
-8.0
 31
0.0
  0
LINE
  5
2E
  8
0
 10
-49.999999999999972
 20
-7.0000000000001128
 30
0.0
 11
-50.000000000000028
 21
7.0
 31
0.0
  0
POINT
  5
2F
  8
0
 10
-50.000000000000028
 20
-7.0
 30
0.0
  0
LINE
  5
30
  8
0
 10
-49.000000000000028
 20
-8.0
 30
0.0
 11
-49.999999999999972
 21
-7.0000000000001128
 31
0.0
  0
POINT
  5
31
  8
0
 10
-50.000000000000028
 20
2.5
 30
0.0
  0
POINT
  5
32
  8
0
 10
-50.000000000000028
 20
7.0
 30
0.0
  0
LINE
  5
33
  8
0
 10
-49.000000000000028
 20
8.0
 30
0.0
 11
-50.000000000000028
 21
7.0
 31
0.0
  0
ARC
  5
34
  8
0
 10
-27.5
 20
0.0
 30
0.0
 40
2.5
 50
269.99996170827569
 51
90.000038291724223
  0
LINE
  5
35
  8
0
 10
315.5
 20
54.0
 30
0.0
 11
315.49999999999977
 21
-55.0
 31
0.0
  0
LINE
  5
36
  8
0
 10
288.5
 20
54.0
 30
0.0
 11
288.5
 21
-55.0
 31
0.0
  0
LINE
  5
37
  8
0
 10
288.5
 20
54.0
 30
0.0
 11
288.5
 21
-54.0
 31
0.0
  0
LINE
  5
38
  8
0
 10
318.5
 20
54.0
 30
0.0
 11
318.5
 21
-54.000000000000021
 31
0.0
  0
LINE
  5
39
  8
0
 10
-1.5
 20
-30.0
 30
0.0
 11
-1.5
 21
30.0
 31
0.0
  0
LINE
  5
3A
  8
0
 10
0.0
 20
-54.0
 30
0.0
 11
0.0
 21
54.0
 31
0.0
  0
LINE
  5
3B
  8
0
 10
9.0
 20
-54.0
 30
0.0
 11
9.0
 21
54.0
 31
0.0
  0
LINE
  5
3C
  8
0
 10
230.99999999999989
 20
54.0
 30
0.0
 11
230.99999999999989
 21
-54.0
 31
0.0
  0
LINE
  5
3D
  8
0
 10
234.49999999999989
 20
54.0
 30
0.0
 11
234.49999999999989
 21
-54.0
 31
0.0
  0
LINE
  5
3E
  8
0
 10
288.5
 20
-54.000000000000028
 30
0.0
 11
0.0
 21
-54.0
 31
0.0
  0
TEXT
  5
3F
  8
0
 10
14.797372426580861
 20
-48.71622466360941
 30
0.0
 40
5.1200000000000001
  1
SM 107.4.18 MB
  7
SIMPLEX
  0
LINE
  5
40
  8
0
 10
9.0
 20
-50.596442562694051
 30
0.0
 11
0.0
 21
-50.596442562694051
 31
0.0
  0
LINE
  5
41
  8
0
 10
-1.5
 20
-30.0
 30
0.0
 11
0.0
 21
-30.0
 31
0.0
  0
LINE
  5
42
  8
0
 10
313.40245682128369
 20
-53.326155486237951
 30
0.0
 11
290.61400784444021
 21
-53.326155486237951
 31
0.0
  0
LINE
  5
43
  8
0
 10
313.0
 20
-55.0
 30
0.0
 11
291.0
 21
-55.0
 31
0.0
  0
LINE
  5
44
  8
0
 10
315.49999999999977
 20
-55.0
 30
0.0
 11
288.5
 21
-55.0
 31
0.0
  0
ARC
  5
45
  8
0
 10
293.38603723191312
 20
-67.892461630354376
 30
0.0
 40
3.8749065389628909
 50
229.0818410078268
 51
310.91815899217318
  0
LINE
  5
46
  8
0
 10
290.8480496425509
 20
-68.767368169317251
 30
0.0
 11
313.0
 21
-68.767368169317251
 31
0.0
  0
LINE
  5
47
  8
0
 10
291.0
 20
-67.0
 30
0.0
 11
313.0
 21
-67.0
 31
0.0
  0
LINE
  5
48
  8
0
 10
291.0
 20
-55.0
 30
0.0
 11
291.0
 21
-67.0
 31
0.0
  0
LINE
  5
49
  8
0
 10
290.8480496425509
 20
-68.767368169317251
 30
0.0
 11
290.8480496425509
 21
-70.820518952529312
 31
0.0
  0
LINE
  5
4A
  8
0
 10
313.0
 20
-67.0
 30
0.0
 11
313.0
 21
-55.0
 31
0.0
  0
ARC
  5
4B
  8
0
 10
301.9240248212754
 20
-52.283524921029311
 30
0.0
 40
19.48384324828795
 50
252.06442176845169
 51
287.93557823154828
  0
LINE
  5
4C
  8
0
 10
293.38603723191312
 20
-71.767368169317251
 30
0.0
 11
310.46201159120932
 21
-71.767368169317251
 31
0.0
  0
LINE
  5
4D
  8
0
 10
292.0
 20
-67.0
 30
0.0
 11
292.0
 21
-68.767368169317251
 31
0.0
  0
LINE
  5
4E
  8
0
 10
295.9240248212754
 20
-68.767368169317251
 30
0.0
 11
295.9240248212754
 21
-70.820518952528971
 31
0.0
  0
LINE
  5
4F
  8
0
 10
301.9240248212754
 20
-68.767368169317251
 30
0.0
 11
295.9240248212754
 21
-68.767368169317251
 31
0.0
  0
LINE
  5
50
  8
0
 10
311.8480496425509
 20
-67.0
 30
0.0
 11
311.8480496425509
 21
-68.767368169317251
 31
0.0
  0
LINE
  5
51
  8
0
 10
313.0
 20
-68.767368169317251
 30
0.0
 11
313.0
 21
-70.820518952529653
 31
0.0
  0
LINE
  5
52
  8
0
 10
307.9240248212754
 20
-68.767368169317251
 30
0.0
 11
307.9240248212754
 21
-70.820518952528971
 31
0.0
  0
ARC
  5
53
  8
0
 10
310.46201241063773
 20
-67.892461630354376
 30
0.0
 40
3.8749065389628909
 50
229.0818410078268
 51
310.91815899217312
  0
LINE
  5
54
  8
0
 10
318.5
 20
-54.0
 30
0.0
 11
315.49999999999977
 21
-54.0
 31
0.0
  0
LINE
  5
55
  8
0
 10
321.74999999999977
 20
-50.692831051108669
 30
0.0
 11
321.74999999999977
 21
-48.89999999999975
 31
0.0
  0
LINE
  5
56
  8
0
 10
321.13892998897308
 20
-51.341664200661512
 30
0.0
 11
318.49999999999977
 21
-51.499999999999773
 31
0.0
  0
ARC
  5
57
  8
0
 10
321.0999999999998
 20
-50.692831051108669
 30
0.0
 40
0.65
 50
273.43363036244938
 51
0.0
  0
LINE
  5
58
  8
0
 10
321.13892998897308
 20
-45.158335799338261
 30
0.0
 11
318.49999999999977
 21
-44.999999999999773
 31
0.0
  0
ARC
  5
59
  8
0
 10
321.0999999999998
 20
-45.80716894889099
 30
0.0
 40
0.65
 50
0.0
 51
86.566369637550537
  0
LINE
  5
5A
  8
0
 10
321.74999999999977
 20
-45.80716894889099
 30
0.0
 11
321.74999999999977
 21
-47.599999999999788
 31
0.0
  0
LINE
  5
5B
  8
0
 10
320.44999999999987
 20
-48.89999999999975
 30
0.0
 11
320.44999999999987
 21
-47.599999999999788
 31
0.0
  0
LINE
  5
5C
  8
0
 10
321.74999999999977
 20
-47.599999999999788
 30
0.0
 11
320.44999999999987
 21
-47.599999999999788
 31
0.0
  0
LINE
  5
5D
  8
0
 10
321.74999999999977
 20
-48.89999999999975
 30
0.0
 11
320.44999999999987
 21
-48.89999999999975
 31
0.0
  0
LINE
  5
5E
  8
0
 10
0.0
 20
54.0
 30
0.0
 11
318.5
 21
54.0
 31
0.0
  0
LINE
  5
5F
  8
0
 10
-1.5
 20
30.0
 30
0.0
 11
0.0
 21
30.0
 31
0.0
  0
POINT
  5
60
  8
0
 10
0.0
 20
54.0
 30
0.0
  0
LINE
  5
61
  8
0
 10
9.0
 20
50.59644256269393
 30
0.0
 11
0.0
 21
50.59644256269393
 31
0.0
  0
LINE
  5
62
  8
0
 10
320.44999999999987
 20
48.89999999999975
 30
0.0
 11
320.44999999999987
 21
47.599999999999788
 31
0.0
  0
LINE
  5
63
  8
0
 10
321.13892998897308
 20
45.158335799338261
 30
0.0
 11
318.49999999999977
 21
44.999999999999773
 31
0.0
  0
LINE
  5
64
  8
0
 10
321.74999999999977
 20
45.80716894889099
 30
0.0
 11
321.74999999999977
 21
47.599999999999788
 31
0.0
  0
LINE
  5
65
  8
0
 10
321.74999999999977
 20
47.599999999999788
 30
0.0
 11
320.44999999999987
 21
47.599999999999788
 31
0.0
  0
ARC
  5
66
  8
0
 10
321.0999999999998
 20
45.80716894889099
 30
0.0
 40
0.65
 50
273.43363036244938
 51
0.0
  0
LINE
  5
67
  8
0
 10
321.13892998897308
 20
51.341664200661512
 30
0.0
 11
318.49999999999977
 21
51.499999999999773
 31
0.0
  0
ARC
  5
68
  8
0
 10
321.0999999999998
 20
50.692831051108669
 30
0.0
 40
0.65
 50
0.0
 51
86.566369637550537
  0
LINE
  5
69
  8
0
 10
321.74999999999977
 20
50.692831051108669
 30
0.0
 11
321.74999999999977
 21
48.89999999999975
 31
0.0
  0
LINE
  5
6A
  8
0
 10
321.74999999999977
 20
48.89999999999975
 30
0.0
 11
320.44999999999987
 21
48.89999999999975
 31
0.0
  0
ENDSEC
  0
EOF
