  0
SECTION
  2
HEADER
  9
$ACADVER
  1
AC1009
  9
$INSBASE
 10
0.0
 20
0.0
 30
0.0
  9
$EXTMIN
 10
-64.672844672964288
 20
-78.768433777836663
 30
0.0
  9
$EXTMAX
 10
59.153700222651651
 20
64.672844672964189
 30
0.0
  9
$LIMMIN
 10
0.0
 20
0.0
  9
$LIMMAX
 10
410.0
 20
287.0
  9
$ORTHOMODE
 70
     1
  9
$REGENMODE
 70
     1
  9
$FILLMODE
 70
     1
  9
$QTEXTMODE
 70
     0
  9
$MIRRTEXT
 70
     0
  9
$DRAGMODE
 70
     2
  9
$LTSCALE
 40
25.0
  9
$OSMODE
 70
    39
  9
$ATTMODE
 70
     1
  9
$TEXTSIZE
 40
8.0
  9
$TRACEWID
 40
1.0
  9
$TEXTSTYLE
  7
SIMPLEX
  9
$CLAYER
  8
MITTELLI
  9
$CELTYPE
  6
BYLAYER
  9
$CECOLOR
 62
   256
  9
$DIMSCALE
 40
1.0
  9
$DIMASZ
 40
7.0
  9
$DIMEXO
 40
0.1
  9
$DIMDLI
 40
7.0
  9
$DIMRND
 40
0.0
  9
$DIMDLE
 40
0.0
  9
$DIMEXE
 40
1.8
  9
$DIMTP
 40
1.0
  9
$DIMTM
 40
1.0
  9
$DIMTXT
 40
3.5
  9
$DIMCEN
 40
1.5
  9
$DIMTSZ
 40
0.0
  9
$DIMTOL
 70
     0
  9
$DIMLIM
 70
     0
  9
$DIMTIH
 70
     0
  9
$DIMTOH
 70
     0
  9
$DIMSE1
 70
     0
  9
$DIMSE2
 70
     0
  9
$DIMTAD
 70
     1
  9
$DIMZIN
 70
     0
  9
$DIMBLK
  1

  9
$DIMASO
 70
     0
  9
$DIMSHO
 70
     1
  9
$DIMPOST
  1

  9
$DIMAPOST
  1

  9
$DIMALT
 70
     0
  9
$DIMALTD
 70
     2
  9
$DIMALTF
 40
25.399999999999999
  9
$DIMLFAC
 40
1.0
  9
$DIMTOFL
 70
     0
  9
$DIMTVP
 40
0.0
  9
$DIMTIX
 70
     0
  9
$DIMSOXD
 70
     0
  9
$DIMSAH
 70
     0
  9
$DIMBLK1
  1

  9
$DIMBLK2
  1

  9
$DIMSTYLE
  2
STANDARD
  9
$DIMCLRD
 70
     0
  9
$DIMCLRE
 70
     0
  9
$DIMCLRT
 70
     0
  9
$DIMTFAC
 40
1.0
  9
$DIMGAP
 40
0.09
  9
$LUNITS
 70
     2
  9
$LUPREC
 70
     4
  9
$SKETCHINC
 40
0.1
  9
$FILLETRAD
 40
0.0
  9
$AUNITS
 70
     0
  9
$AUPREC
 70
     0
  9
$MENU
  1
c:/acad/acad
  9
$ELEVATION
 40
0.0
  9
$PELEVATION
 40
0.0
  9
$THICKNESS
 40
0.0
  9
$LIMCHECK
 70
     0
  9
$BLIPMODE
 70
     0
  9
$CHAMFERA
 40
2.0
  9
$CHAMFERB
 40
2.0
  9
$SKPOLY
 70
     0
  9
$TDCREATE
 40
2448364.5747825229
  9
$TDUPDATE
 40
2452655.6963533098
  9
$TDINDWG
 40
0.1612322917
  9
$TDUSRTIMER
 40
0.1612321759
  9
$USRTIMER
 70
     1
  9
$ANGBASE
 50
0.0
  9
$ANGDIR
 70
     0
  9
$PDMODE
 70
     0
  9
$PDSIZE
 40
0.0
  9
$PLINEWID
 40
0.0
  9
$COORDS
 70
     0
  9
$SPLFRAME
 70
     0
  9
$SPLINETYPE
 70
     6
  9
$SPLINESEGS
 70
     8
  9
$ATTDIA
 70
     0
  9
$ATTREQ
 70
     1
  9
$HANDLING
 70
  4097
  9
$HANDSEED
  5
10B
  9
$SURFTAB1
 70
     6
  9
$SURFTAB2
 70
     6
  9
$SURFTYPE
 70
     6
  9
$SURFU
 70
     6
  9
$SURFV
 70
     6
  9
$UCSNAME
  2

  9
$UCSORG
 10
0.0
 20
0.0
 30
0.0
  9
$UCSXDIR
 10
1.0
 20
0.0
 30
0.0
  9
$UCSYDIR
 10
0.0
 20
1.0
 30
0.0
  9
$PUCSNAME
  2

  9
$PUCSORG
 10
0.0
 20
0.0
 30
0.0
  9
$PUCSXDIR
 10
1.0
 20
0.0
 30
0.0
  9
$PUCSYDIR
 10
0.0
 20
1.0
 30
0.0
  9
$USERI1
 70
     0
  9
$USERI2
 70
     0
  9
$USERI3
 70
     0
  9
$USERI4
 70
     0
  9
$USERI5
 70
     0
  9
$USERR1
 40
0.0
  9
$USERR2
 40
0.0
  9
$USERR3
 40
0.0
  9
$USERR4
 40
0.0
  9
$USERR5
 40
0.0
  9
$WORLDVIEW
 70
     1
  9
$SHADEDGE
 70
     3
  9
$SHADEDIF
 70
    70
  9
$TILEMODE
 70
     1
  9
$MAXACTVP
 70
    64
  9
$PLIMCHECK
 70
     0
  9
$PEXTMIN
 10
1.0000000000000000E+020
 20
1.0000000000000000E+020
 30
1.0000000000000000E+020
  9
$PEXTMAX
 10
-1.0000000000000000E+020
 20
-1.0000000000000000E+020
 30
-1.0000000000000000E+020
  9
$PLIMMIN
 10
0.0
 20
0.0
  9
$PLIMMAX
 10
12.0
 20
9.0
  9
$UNITMODE
 70
     0
  9
$VISRETAIN
 70
     1
  9
$PLINEGEN
 70
     0
  9
$PSLTSCALE
 70
     0
  0
ENDSEC
  0
SECTION
  2
TABLES
  0
TABLE
  2
VPORT
 70
     3
  0
VPORT
  2
*ACTIVE
 70
     0
 10
0.0
 20
0.0
 11
1.0
 21
1.0
 12
-0.1732569056987643
 22
-7.0484385329164629
 13
0.0
 23
0.0
 14
0.5
 24
0.5
 15
10.0
 25
10.0
 16
0.0
 26
0.0
 36
1.0
 17
0.0
 27
0.0
 37
0.0
 40
145.89508756936209
 41
2.0726744186046511
 42
50.0
 43
0.0
 44
0.0
 50
0.0
 51
0.0
 71
     0
 72
   100
 73
     1
 74
     0
 75
     0
 76
     0
 77
     0
 78
     0
  0
ENDTAB
  0
TABLE
  2
LTYPE
 70
     2
  0
LTYPE
  2
CONTINUOUS
 70
     0
  3
Solid line
 72
    65
 73
     0
 40
0.0
  0
LTYPE
  2
MITTKLEIN
 70
     0
  3
__ . __ . ___ 
 72
    65
 73
     4
 40
0.45
 49
0.25
 49
-0.1
 49
0.0
 49
-0.1
  0
ENDTAB
  0
TABLE
  2
LAYER
 70
     2
  0
LAYER
  2
0
 70
     0
 62
     7
  6
CONTINUOUS
  0
LAYER
  2
MITTELLI
 70
     0
 62
     1
  6
MITTKLEIN
  0
ENDTAB
  0
TABLE
  2
STYLE
 70
     3
  0
STYLE
  2
STANDARD
 70
     0
 40
0.0
 41
1.0
 50
0.0
 71
     0
 42
0.2
  3
txt
  4

  0
STYLE
  2
SIMPLEX
 70
     0
 40
0.0
 41
1.0
 50
0.0
 71
     0
 42
8.0
  3
8simplex
  4

  0
STYLE
  2
TXT
 70
     0
 40
0.0
 41
1.0
 50
0.0
 71
     0
 42
2.5
  3
8txt
  4

  0
ENDTAB
  0
TABLE
  2
VIEW
 70
     0
  0
ENDTAB
  0
TABLE
  2
UCS
 70
     0
  0
ENDTAB
  0
TABLE
  2
APPID
 70
     1
  0
APPID
  2
ACAD
 70
     0
  0
ENDTAB
  0
TABLE
  2
DIMSTYLE
 70
     1
  0
DIMSTYLE
  2
STANDARD
 70
     0
  3

  4

  5

  6

  7

 40
1.0
 41
0.18
 42
0.0625
 43
0.38
 44
0.18
 45
0.0
 46
0.0
 47
0.0
 48
0.0
140
0.18
141
0.09
142
0.0
143
25.399999999999999
144
1.0
145
0.0
146
1.0
147
0.09
 71
     0
 72
     0
 73
     1
 74
     1
 75
     0
 76
     0
 77
     0
 78
     0
170
     0
171
     2
172
     0
173
     0
174
     0
175
     0
176
     0
177
     0
178
     0
  0
ENDTAB
  0
ENDSEC
  0
SECTION
  2
BLOCKS
  0
BLOCK
  8
0
  2
$MODEL_SPACE
 70
     0
 10
0.0
 20
0.0
 30
0.0
  3
$MODEL_SPACE
  1

  0
ENDBLK
  5
7F
  8
0
  0
BLOCK
 67
     1
  8
0
  2
$PAPER_SPACE
 70
     0
 10
0.0
 20
0.0
 30
0.0
  3
$PAPER_SPACE
  1

  0
ENDBLK
  5
7B
 67
     1
  8
0
  0
ENDSEC
  0
SECTION
  2
ENTITIES
  0
LINE
  5
92
  8
0
 10
-54.000000000000107
 20
-50.596442562694037
 30
0.0
 11
-54.000000000000107
 21
50.59644256269393
 31
0.0
  0
LINE
  5
93
  8
MITTELLI
 10
-0.0000000000001137
 20
0.0
 30
0.0
 11
-0.0000000000001137
 21
-78.768433777836663
 31
0.0
  0
LINE
  5
94
  8
0
 10
53.999999999999879
 20
50.596442562694037
 30
0.0
 11
53.999999999999879
 21
-50.596442562694151
 31
0.0
  0
LINE
  5
95
  8
0
 10
50.59644256269393
 20
-54.0
 30
0.0
 11
-50.596442562694151
 21
-54.0
 31
0.0
  0
CIRCLE
  5
96
  8
0
 10
-44.999999999999879
 20
-45.0
 30
0.0
 40
4.25
  0
LINE
  5
97
  8
0
 10
-34.90500432902671
 20
-56.951058812252541
 30
0.0
 11
-27.384599692761981
 21
-60.888320996960147
 31
0.0
  0
ARC
  5
98
  8
0
 10
-26.057257709391251
 20
-49.202178101396854
 30
0.0
 40
10.96873477960307
 50
219.60104382577009
 51
265.13089033688982
  0
LINE
  5
99
  8
0
 10
-35.151707220764138
 20
-54.0
 30
0.0
 11
-22.454856178829331
 21
-60.647359269900207
 31
0.0
  0
ARC
  5
9A
  8
0
 10
-0.0000000000001137
 20
0.0
 30
0.0
 40
74.0
 50
223.13625887129561
 51
226.86374112870411
  0
LINE
  5
9B
  8
0
 10
-33.745448463257318
 20
-54.736238233930401
 30
0.0
 11
-34.5086857353716
 21
-56.19406675804349
 31
0.0
  0
ARC
  5
9C
  8
0
 10
-35.363092031061399
 20
-53.238462932937303
 30
0.0
 40
3.076622188228515
 50
194.33102881948639
 51
286.12353024668488
  0
LINE
  5
9D
  8
0
 10
-36.790098153107969
 20
-55.964129386621721
 30
0.0
 11
-34.90500432902671
 21
-56.951058812252541
 31
0.0
  0
LINE
  5
9E
  8
0
 10
-23.947615726987401
 20
-59.865834072242251
 30
0.0
 11
-22.788059861217938
 21
-57.651013493920097
 31
0.0
  0
LINE
  5
9F
  8
0
 10
-27.384599692761981
 20
-60.888320996960147
 30
0.0
 11
-25.49950586868033
 21
-61.875250422591293
 31
0.0
  0
LINE
  5
A0
  8
0
 10
-26.225043826992529
 20
-58.673500418638007
 30
0.0
 11
-26.988281099106921
 21
-60.13132894275099
 31
0.0
  0
LINE
  5
A1
  8
0
 10
-23.2180934509434
 20
-62.105187794012963
 30
0.0
 11
-22.454856178829331
 21
-60.647359269900207
 31
0.0
  0
LINE
  5
A2
  8
0
 10
-21.29530031305983
 20
-58.432538691577861
 30
0.0
 11
-29.76171249562611
 21
-54.0
 31
0.0
  0
LINE
  5
A3
  8
0
 10
-21.29530031305983
 20
-58.432538691577861
 30
0.0
 11
-18.974671594699991
 21
-54.0
 31
0.0
  0
ARC
  5
A4
  8
0
 10
-24.07249974663419
 20
-59.149583968907571
 30
0.0
 40
3.0766221882279479
 50
198.6084039159679
 51
286.12353024669119
  0
CIRCLE
  5
A5
  8
0
 10
44.999999999999879
 20
-44.999999999999773
 30
0.0
 40
4.25
  0
LINE
  5
A6
  8
0
 10
38.023389780948648
 20
-59.484705094613332
 30
0.0
 11
28.307555155962341
 21
-64.717434337862173
 31
0.0
  0
LINE
  5
A7
  8
0
 10
41.35312594504164
 20
-54.0
 30
0.0
 11
21.895656004827561
 21
-64.479354155942005
 31
0.0
  0
ARC
  5
A8
  8
0
 10
26.403986797981421
 20
-49.546726936454888
 30
0.0
 40
14.259355213484
 50
275.54097986163401
 51
321.07082637275369
  0
LINE
  5
A9
  8
0
 10
20.35457451130668
 20
-61.617961517675212
 30
0.0
 11
34.499173026647952
 21
-53.999999999999993
 31
0.0
  0
ARC
  5
AA
  8
0
 10
23.975616120422259
 20
-62.507720933986427
 30
0.0
 40
3.999608844696334
 50
254.5483399518325
 51
342.06346628255591
  0
LINE
  5
AB
  8
0
 10
22.91001923642574
 20
-66.36276622443188
 30
0.0
 11
21.895656004827561
 21
-64.479354155942005
 31
0.0
  0
LINE
  5
AC
  8
0
 10
28.307555155962341
 20
-64.717434337862173
 30
0.0
 11
25.872146327155392
 21
-66.029090566035507
 31
0.0
  0
LINE
  5
AD
  8
0
 10
26.766473662441509
 20
-61.856041699595501
 30
0.0
 11
27.780836894039961
 21
-63.739453768085703
 31
0.0
  0
LINE
  5
AE
  8
0
 10
23.824196503145231
 20
-63.440685770584182
 30
0.0
 11
22.283115009624449
 21
-60.579293132317488
 31
0.0
  0
LINE
  5
AF
  8
0
 10
20.35457451130668
 20
-61.617961517675212
 30
0.0
 11
16.25171237479298
 21
-54.0
 31
0.0
  0
LINE
  5
B0
  8
0
 10
39.424585446723981
 20
-55.038668385357703
 30
0.0
 11
38.998614842465209
 21
-54.247750347428791
 31
0.0
  0
LINE
  5
B1
  8
0
 10
36.482308287427713
 20
-56.623312456346639
 30
0.0
 11
37.496671519026151
 21
-58.506724524836848
 31
0.0
  0
LINE
  5
B2
  8
0
 10
40.458798609755149
 20
-58.17304886644034
 30
0.0
 11
38.023389780948648
 21
-59.484705094613332
 31
0.0
  0
LINE
  5
B3
  8
0
 10
42.367489176639829
 20
-55.883412068489513
 30
0.0
 11
41.35312594504164
 21
-54.0
 31
0.0
  0
ARC
  5
B4
  8
0
 10
38.562268403022173
 20
-54.651679234391182
 30
0.0
 40
3.999608844696334
 50
254.5483399518325
 51
342.06346628255909
  0
ARC
  5
B5
  8
0
 10
-0.0000000000001137
 20
0.0
 30
0.0
 40
74.0
 50
313.13625887129558
 51
316.86374112870419
  0
LINE
  5
B6
  8
MITTELLI
 10
-64.672844672964288
 20
-0.0000000000002274
 30
0.0
 11
0.0
 21
0.0000000000001137
 31
0.0
  0
LINE
  5
B7
  8
0
 10
-50.596442562694293
 20
54.0
 30
0.0
 11
50.596442562694037
 21
54.0
 31
0.0
  0
ARC
  5
B8
  8
0
 10
-0.0000000000001137
 20
0.0
 30
0.0
 40
74.0
 50
133.13625887129581
 51
136.86374112870411
  0
CIRCLE
  5
B9
  8
0
 10
-45.000000000000099
 20
44.999999999999773
 30
0.0
 40
4.25
  0
LINE
  5
BA
  8
MITTELLI
 10
-0.0000000000001137
 20
64.672844672964189
 30
0.0
 11
-0.0000000000001137
 21
0.0
 31
0.0
  0
LINE
  5
BB
  8
MITTELLI
 10
-0.0000000000001137
 20
0.0
 30
0.0
 11
59.153700222651651
 21
0.0
 31
0.0
  0
CIRCLE
  5
BF
  8
0
 10
44.999999999999659
 20
45.0
 30
0.0
 40
4.25
  0
ARC
  5
C0
  8
0
 10
-0.0000000000001137
 20
0.0
 30
0.0
 40
74.0
 50
43.136258871295809
 51
46.863741128704199
  0
CIRCLE
  5
CB
  8
0
 10
-0.0000000000001137
 20
0.0
 30
0.0
 40
30.0
  0
CIRCLE
  5
CC
  8
0
 10
-0.0000000000001137
 20
0.0
 30
0.0
 40
13.5
  0
CIRCLE
  5
CD
  8
0
 10
-0.0000000000002274
 20
-0.0000000000001137
 30
0.0
 40
8.0
  0
LINE
  5
CE
  8
0
 10
10.000000000001251
 20
-2.4999999999998859
 30
0.0
 11
10.000000000001251
 21
2.4999999999998859
 31
0.0
  0
LINE
  5
CF
  8
0
 10
10.000000000001251
 20
2.4999999999998859
 30
0.0
 11
7.5993420767851037
 21
2.4999999999998859
 31
0.0
  0
LINE
  5
D0
  8
0
 10
10.000000000001251
 20
-2.4999999999998859
 30
0.0
 11
7.5993420767851791
 21
-2.4999999999998859
 31
0.0
  0
ENDSEC
  0
EOF
