  0
SECTION
  2
HEADER
  9
$ACADVER
  1
AC1009
  9
$INSBASE
 10
0.0
 20
0.0
 30
0.0
  9
$EXTMIN
 10
-64.672844672964189
 20
-61.944167971228573
 30
0.0
  9
$EXTMAX
 10
59.15370022265175
 20
68.027749187298468
 30
0.0
  9
$LIMMIN
 10
0.0
 20
0.0
  9
$LIMMAX
 10
410.0
 20
287.0
  9
$ORTHOMODE
 70
     1
  9
$REGENMODE
 70
     1
  9
$FILLMODE
 70
     1
  9
$QTEXTMODE
 70
     0
  9
$MIRRTEXT
 70
     0
  9
$DRAGMODE
 70
     2
  9
$LTSCALE
 40
25.0
  9
$OSMODE
 70
    39
  9
$ATTMODE
 70
     1
  9
$TEXTSIZE
 40
8.0
  9
$TRACEWID
 40
1.0
  9
$TEXTSTYLE
  7
SIMPLEX
  9
$CLAYER
  8
MITTELLI
  9
$CELTYPE
  6
BYLAYER
  9
$CECOLOR
 62
   256
  9
$DIMSCALE
 40
1.0
  9
$DIMASZ
 40
7.0
  9
$DIMEXO
 40
0.1
  9
$DIMDLI
 40
7.0
  9
$DIMRND
 40
0.0
  9
$DIMDLE
 40
0.0
  9
$DIMEXE
 40
1.8
  9
$DIMTP
 40
1.0
  9
$DIMTM
 40
1.0
  9
$DIMTXT
 40
3.5
  9
$DIMCEN
 40
1.5
  9
$DIMTSZ
 40
0.0
  9
$DIMTOL
 70
     0
  9
$DIMLIM
 70
     0
  9
$DIMTIH
 70
     0
  9
$DIMTOH
 70
     0
  9
$DIMSE1
 70
     0
  9
$DIMSE2
 70
     0
  9
$DIMTAD
 70
     1
  9
$DIMZIN
 70
     0
  9
$DIMBLK
  1

  9
$DIMASO
 70
     0
  9
$DIMSHO
 70
     1
  9
$DIMPOST
  1

  9
$DIMAPOST
  1

  9
$DIMALT
 70
     0
  9
$DIMALTD
 70
     2
  9
$DIMALTF
 40
25.399999999999999
  9
$DIMLFAC
 40
1.0
  9
$DIMTOFL
 70
     0
  9
$DIMTVP
 40
0.0
  9
$DIMTIX
 70
     0
  9
$DIMSOXD
 70
     0
  9
$DIMSAH
 70
     0
  9
$DIMBLK1
  1

  9
$DIMBLK2
  1

  9
$DIMSTYLE
  2
STANDARD
  9
$DIMCLRD
 70
     0
  9
$DIMCLRE
 70
     0
  9
$DIMCLRT
 70
     0
  9
$DIMTFAC
 40
1.0
  9
$DIMGAP
 40
0.09
  9
$LUNITS
 70
     2
  9
$LUPREC
 70
     4
  9
$SKETCHINC
 40
0.1
  9
$FILLETRAD
 40
0.0
  9
$AUNITS
 70
     0
  9
$AUPREC
 70
     0
  9
$MENU
  1
c:/acad/acad
  9
$ELEVATION
 40
0.0
  9
$PELEVATION
 40
0.0
  9
$THICKNESS
 40
0.0
  9
$LIMCHECK
 70
     0
  9
$BLIPMODE
 70
     0
  9
$CHAMFERA
 40
2.0
  9
$CHAMFERB
 40
2.0
  9
$SKPOLY
 70
     0
  9
$TDCREATE
 40
2448364.5747825229
  9
$TDUPDATE
 40
2452655.697166516
  9
$TDINDWG
 40
0.1565454745
  9
$TDUSRTIMER
 40
0.1565454745
  9
$USRTIMER
 70
     1
  9
$ANGBASE
 50
0.0
  9
$ANGDIR
 70
     0
  9
$PDMODE
 70
     0
  9
$PDSIZE
 40
0.0
  9
$PLINEWID
 40
0.0
  9
$COORDS
 70
     0
  9
$SPLFRAME
 70
     0
  9
$SPLINETYPE
 70
     6
  9
$SPLINESEGS
 70
     8
  9
$ATTDIA
 70
     0
  9
$ATTREQ
 70
     1
  9
$HANDLING
 70
  4097
  9
$HANDSEED
  5
EC
  9
$SURFTAB1
 70
     6
  9
$SURFTAB2
 70
     6
  9
$SURFTYPE
 70
     6
  9
$SURFU
 70
     6
  9
$SURFV
 70
     6
  9
$UCSNAME
  2

  9
$UCSORG
 10
0.0
 20
0.0
 30
0.0
  9
$UCSXDIR
 10
1.0
 20
0.0
 30
0.0
  9
$UCSYDIR
 10
0.0
 20
1.0
 30
0.0
  9
$PUCSNAME
  2

  9
$PUCSORG
 10
0.0
 20
0.0
 30
0.0
  9
$PUCSXDIR
 10
1.0
 20
0.0
 30
0.0
  9
$PUCSYDIR
 10
0.0
 20
1.0
 30
0.0
  9
$USERI1
 70
     0
  9
$USERI2
 70
     0
  9
$USERI3
 70
     0
  9
$USERI4
 70
     0
  9
$USERI5
 70
     0
  9
$USERR1
 40
0.0
  9
$USERR2
 40
0.0
  9
$USERR3
 40
0.0
  9
$USERR4
 40
0.0
  9
$USERR5
 40
0.0
  9
$WORLDVIEW
 70
     1
  9
$SHADEDGE
 70
     3
  9
$SHADEDIF
 70
    70
  9
$TILEMODE
 70
     1
  9
$MAXACTVP
 70
    64
  9
$PLIMCHECK
 70
     0
  9
$PEXTMIN
 10
1.0000000000000000E+020
 20
1.0000000000000000E+020
 30
1.0000000000000000E+020
  9
$PEXTMAX
 10
-1.0000000000000000E+020
 20
-1.0000000000000000E+020
 30
-1.0000000000000000E+020
  9
$PLIMMIN
 10
0.0
 20
0.0
  9
$PLIMMAX
 10
12.0
 20
9.0
  9
$UNITMODE
 70
     0
  9
$VISRETAIN
 70
     1
  9
$PLINEGEN
 70
     0
  9
$PSLTSCALE
 70
     0
  0
ENDSEC
  0
SECTION
  2
TABLES
  0
TABLE
  2
VPORT
 70
     3
  0
VPORT
  2
*ACTIVE
 70
     0
 10
0.0
 20
0.0
 11
1.0
 21
1.0
 12
-0.4161894727704692
 22
3.0457845012957199
 13
0.0
 23
0.0
 14
0.5
 24
0.5
 15
10.0
 25
10.0
 16
0.0
 26
0.0
 36
1.0
 17
0.0
 27
0.0
 37
0.0
 40
132.22090286836391
 41
2.0726744186046511
 42
50.0
 43
0.0
 44
0.0
 50
0.0
 51
0.0
 71
     0
 72
   100
 73
     1
 74
     0
 75
     0
 76
     0
 77
     0
 78
     0
  0
ENDTAB
  0
TABLE
  2
LTYPE
 70
     2
  0
LTYPE
  2
CONTINUOUS
 70
     0
  3
Solid line
 72
    65
 73
     0
 40
0.0
  0
LTYPE
  2
MITTKLEIN
 70
     0
  3
__ . __ . ___ 
 72
    65
 73
     4
 40
0.45
 49
0.25
 49
-0.1
 49
0.0
 49
-0.1
  0
ENDTAB
  0
TABLE
  2
LAYER
 70
     2
  0
LAYER
  2
0
 70
     0
 62
     7
  6
CONTINUOUS
  0
LAYER
  2
MITTELLI
 70
     0
 62
     1
  6
MITTKLEIN
  0
ENDTAB
  0
TABLE
  2
STYLE
 70
     3
  0
STYLE
  2
STANDARD
 70
     0
 40
0.0
 41
1.0
 50
0.0
 71
     0
 42
0.2
  3
txt
  4

  0
STYLE
  2
SIMPLEX
 70
     0
 40
0.0
 41
1.0
 50
0.0
 71
     0
 42
8.0
  3
8simplex
  4

  0
STYLE
  2
TXT
 70
     0
 40
0.0
 41
1.0
 50
0.0
 71
     0
 42
2.5
  3
8txt
  4

  0
ENDTAB
  0
TABLE
  2
VIEW
 70
     0
  0
ENDTAB
  0
TABLE
  2
UCS
 70
     0
  0
ENDTAB
  0
TABLE
  2
APPID
 70
     1
  0
APPID
  2
ACAD
 70
     0
  0
ENDTAB
  0
TABLE
  2
DIMSTYLE
 70
     1
  0
DIMSTYLE
  2
STANDARD
 70
     0
  3

  4

  5

  6

  7

 40
1.0
 41
0.18
 42
0.0625
 43
0.38
 44
0.18
 45
0.0
 46
0.0
 47
0.0
 48
0.0
140
0.18
141
0.09
142
0.0
143
25.399999999999999
144
1.0
145
0.0
146
1.0
147
0.09
 71
     0
 72
     0
 73
     1
 74
     1
 75
     0
 76
     0
 77
     0
 78
     0
170
     0
171
     2
172
     0
173
     0
174
     0
175
     0
176
     0
177
     0
178
     0
  0
ENDTAB
  0
ENDSEC
  0
SECTION
  2
BLOCKS
  0
BLOCK
  8
0
  2
$MODEL_SPACE
 70
     0
 10
0.0
 20
0.0
 30
0.0
  3
$MODEL_SPACE
  1

  0
ENDBLK
  5
70
  8
0
  0
BLOCK
 67
     1
  8
0
  2
$PAPER_SPACE
 70
     0
 10
0.0
 20
0.0
 30
0.0
  3
$PAPER_SPACE
  1

  0
ENDBLK
  5
6C
 67
     1
  8
0
  0
ENDSEC
  0
SECTION
  2
ENTITIES
  0
LINE
  5
80
  8
MITTELLI
 10
0.0
 20
64.672844672964189
 30
0.0
 11
0.0
 21
0.0
 31
0.0
  0
LINE
  5
81
  8
0
 10
-54.0
 20
-50.596442562694037
 30
0.0
 11
-54.0
 21
50.59644256269393
 31
0.0
  0
LINE
  5
82
  8
0
 10
54.0
 20
50.59644256269393
 30
0.0
 11
54.0
 21
-50.596442562694151
 31
0.0
  0
LINE
  5
83
  8
MITTELLI
 10
-64.672844672964189
 20
-0.0000000000002274
 30
0.0
 11
0.0000000000001137
 21
0.0
 31
0.0
  0
LINE
  5
84
  8
0
 10
50.596442562694151
 20
-54.0
 30
0.0
 11
-50.596442562694151
 21
-54.0
 31
0.0
  0
CIRCLE
  5
88
  8
0
 10
-44.999999999999773
 20
-45.0
 30
0.0
 40
4.25
  0
ARC
  5
89
  8
0
 10
0.0
 20
0.0
 30
0.0
 40
74.0
 50
223.13625887129561
 51
226.86374112870399
  0
CIRCLE
  5
8A
  8
0
 10
45.0
 20
-44.999999999999773
 30
0.0
 40
4.25
  0
LINE
  5
8B
  8
MITTELLI
 10
0.0
 20
0.0
 30
0.0
 11
0.0
 21
-61.944167971228573
 31
0.0
  0
ARC
  5
8C
  8
0
 10
0.0
 20
0.0
 30
0.0
 40
74.0
 50
313.13625887129581
 51
316.86374112870419
  0
LINE
  5
8D
  8
MITTELLI
 10
0.0
 20
0.0
 30
0.0
 11
59.15370022265175
 21
0.0
 31
0.0
  0
LINE
  5
91
  8
0
 10
-1.7786398079083481
 20
67.817264059040326
 30
0.0
 11
-0.1757939801817656
 21
62.454676981515142
 31
0.0
  0
LINE
  5
92
  8
0
 10
-1.7786398079083481
 20
67.817264059040326
 30
0.0
 11
-0.6676942161104762
 21
67.854906500493598
 31
0.0
  0
LINE
  5
93
  8
0
 10
-3.759042335492039
 20
56.55968575187557
 30
0.0
 11
3.6916078644945838
 21
56.55968575187557
 31
0.0
  0
LINE
  5
94
  8
0
 10
-1.9377722866063321
 20
56.55968575187557
 30
0.0
 11
1.459849659859628
 21
67.926994590478671
 31
0.0
  0
LINE
  5
95
  8
0
 10
-1.091525597225198
 20
56.55968575187557
 30
0.0
 11
2.3147543996940381
 21
67.955961537064468
 31
0.0
  0
LINE
  5
96
  8
0
 10
-50.596442562694151
 20
54.0
 30
0.0
 11
50.596442562694151
 21
54.0
 31
0.0
  0
ARC
  5
97
  8
0
 10
0.0
 20
0.0
 30
0.0
 40
74.0
 50
133.13625887129581
 51
136.86374112870411
  0
CIRCLE
  5
98
  8
0
 10
-45.0
 20
44.999999999999773
 30
0.0
 40
4.25
  0
LINE
  5
99
  8
0
 10
-3.759042335492039
 20
53.975337465778921
 30
0.0
 11
-3.759042335492039
 21
56.55968575187557
 31
0.0
  0
LINE
  5
9A
  8
0
 10
3.6916078644945838
 20
56.55968575187557
 30
0.0
 11
3.6916078644945838
 21
53.975337465778921
 31
0.0
  0
LINE
  5
9B
  8
0
 10
3.448432424256906
 20
67.994374227102071
 30
0.0
 11
4.43343136363137
 21
68.027749187298468
 31
0.0
  0
LINE
  5
9C
  8
0
 10
-0.6676942161104762
 20
67.854906500493598
 30
0.0
 11
0.3853043682122461
 21
64.331924749372092
 31
0.0
  0
LINE
  5
9D
  8
0
 10
1.459849659859628
 20
67.926994590478671
 30
0.0
 11
2.3147543996940381
 21
67.955961537064468
 31
0.0
  0
LINE
  5
9E
  8
0
 10
0.0306710995629374
 20
56.55968575187557
 30
0.0
 11
3.448432424256906
 21
67.994374227102071
 31
0.0
  0
LINE
  5
9F
  8
0
 10
1.0056944590673991
 20
56.55968575187557
 30
0.0
 11
4.43343136363137
 21
68.027749187298468
 31
0.0
  0
CIRCLE
  5
A0
  8
0
 10
44.999999999999773
 20
45.0
 30
0.0
 40
4.25
  0
ARC
  5
A1
  8
0
 10
0.0
 20
0.0
 30
0.0
 40
74.0
 50
43.136258871295809
 51
46.863741128704199
  0
CIRCLE
  5
AC
  8
0
 10
0.0000000000001137
 20
0.0
 30
0.0
 40
30.0
  0
CIRCLE
  5
AD
  8
0
 10
0.0000000000001137
 20
0.0
 30
0.0
 40
13.5
  0
CIRCLE
  5
AE
  8
0
 10
0.0
 20
-0.0000000000001137
 30
0.0
 40
8.0
  0
LINE
  5
AF
  8
0
 10
10.000000000001471
 20
-2.4999999999998859
 30
0.0
 11
10.000000000001471
 21
2.4999999999998859
 31
0.0
  0
LINE
  5
B0
  8
0
 10
10.000000000001471
 20
2.4999999999998859
 30
0.0
 11
7.599342076785331
 21
2.4999999999998859
 31
0.0
  0
LINE
  5
B1
  8
0
 10
10.000000000001471
 20
-2.4999999999998859
 30
0.0
 11
7.5993420767854056
 21
-2.4999999999998859
 31
0.0
  0
ENDSEC
  0
EOF
