  0
SECTION
  2
HEADER
  9
$ACADVER
  1
AC1009
  9
$INSBASE
 10
0.0
 20
0.0
 30
0.0
  9
$EXTMIN
 10
-32.8111306004024
 20
-44.599870125069401
 30
-0.0000000000112498
  9
$EXTMAX
 10
32.641808743340221
 20
34.153707512681308
 30
0.0000000000002956
  9
$LIMMIN
 10
0.0
 20
0.0
  9
$LIMMAX
 10
410.0
 20
287.0
  9
$ORTHOMODE
 70
     0
  9
$REGENMODE
 70
     1
  9
$FILLMODE
 70
     1
  9
$QTEXTMODE
 70
     0
  9
$MIRRTEXT
 70
     1
  9
$DRAGMODE
 70
     2
  9
$LTSCALE
 40
25.0
  9
$OSMODE
 70
   309
  9
$ATTMODE
 70
     1
  9
$TEXTSIZE
 40
2.0
  9
$TRACEWID
 40
1.0
  9
$TEXTSTYLE
  7
SIMPLEX
  9
$CLAYER
  8
0
  9
$CELTYPE
  6
BYLAYER
  9
$CECOLOR
 62
   256
  9
$DIMSCALE
 40
1.0
  9
$DIMASZ
 40
3.5
  9
$DIMEXO
 40
0.1
  9
$DIMDLI
 40
7.0
  9
$DIMRND
 40
0.0
  9
$DIMDLE
 40
0.0
  9
$DIMEXE
 40
1.8
  9
$DIMTP
 40
0.0
  9
$DIMTM
 40
0.0
  9
$DIMTXT
 40
3.5
  9
$DIMCEN
 40
1.5
  9
$DIMTSZ
 40
0.0
  9
$DIMTOL
 70
     0
  9
$DIMLIM
 70
     1
  9
$DIMTIH
 70
     0
  9
$DIMTOH
 70
     0
  9
$DIMSE1
 70
     0
  9
$DIMSE2
 70
     0
  9
$DIMTAD
 70
     1
  9
$DIMZIN
 70
     0
  9
$DIMBLK
  1

  9
$DIMASO
 70
     0
  9
$DIMSHO
 70
     0
  9
$DIMPOST
  1

  9
$DIMAPOST
  1

  9
$DIMALT
 70
     0
  9
$DIMALTD
 70
     2
  9
$DIMALTF
 40
25.399999999999999
  9
$DIMLFAC
 40
1.0
  9
$DIMTOFL
 70
     0
  9
$DIMTVP
 40
0.0
  9
$DIMTIX
 70
     0
  9
$DIMSOXD
 70
     0
  9
$DIMSAH
 70
     0
  9
$DIMBLK1
  1

  9
$DIMBLK2
  1

  9
$DIMSTYLE
  2
STANDARD
  9
$DIMCLRD
 70
     0
  9
$DIMCLRE
 70
     0
  9
$DIMCLRT
 70
     0
  9
$DIMTFAC
 40
1.0
  9
$DIMGAP
 40
0.09
  9
$LUNITS
 70
     2
  9
$LUPREC
 70
     2
  9
$SKETCHINC
 40
1.0
  9
$FILLETRAD
 40
0.0
  9
$AUNITS
 70
     0
  9
$AUPREC
 70
     0
  9
$MENU
  1
ACAD
  9
$ELEVATION
 40
0.0
  9
$PELEVATION
 40
0.0
  9
$THICKNESS
 40
0.0
  9
$LIMCHECK
 70
     0
  9
$BLIPMODE
 70
     0
  9
$CHAMFERA
 40
0.5
  9
$CHAMFERB
 40
0.5
  9
$SKPOLY
 70
     0
  9
$TDCREATE
 40
2448527.3363592592
  9
$TDUPDATE
 40
2452618.71052397
  9
$TDINDWG
 40
0.0569828704
  9
$TDUSRTIMER
 40
0.0569828704
  9
$USRTIMER
 70
     1
  9
$ANGBASE
 50
0.0
  9
$ANGDIR
 70
     0
  9
$PDMODE
 70
     0
  9
$PDSIZE
 40
0.0
  9
$PLINEWID
 40
0.0
  9
$COORDS
 70
     0
  9
$SPLFRAME
 70
     0
  9
$SPLINETYPE
 70
     6
  9
$SPLINESEGS
 70
     8
  9
$ATTDIA
 70
     0
  9
$ATTREQ
 70
     1
  9
$HANDLING
 70
  4097
  9
$HANDSEED
  5
10D
  9
$SURFTAB1
 70
     6
  9
$SURFTAB2
 70
     6
  9
$SURFTYPE
 70
     6
  9
$SURFU
 70
     6
  9
$SURFV
 70
     6
  9
$UCSNAME
  2

  9
$UCSORG
 10
0.0
 20
0.0
 30
0.0
  9
$UCSXDIR
 10
1.0
 20
0.0
 30
0.0
  9
$UCSYDIR
 10
0.0
 20
1.0
 30
0.0
  9
$PUCSNAME
  2

  9
$PUCSORG
 10
0.0
 20
0.0
 30
0.0
  9
$PUCSXDIR
 10
1.0
 20
0.0
 30
0.0
  9
$PUCSYDIR
 10
0.0
 20
1.0
 30
0.0
  9
$USERI1
 70
     0
  9
$USERI2
 70
     0
  9
$USERI3
 70
     0
  9
$USERI4
 70
     0
  9
$USERI5
 70
     0
  9
$USERR1
 40
0.0
  9
$USERR2
 40
0.0
  9
$USERR3
 40
0.0
  9
$USERR4
 40
0.0
  9
$USERR5
 40
0.0
  9
$WORLDVIEW
 70
     1
  9
$SHADEDGE
 70
     3
  9
$SHADEDIF
 70
    70
  9
$TILEMODE
 70
     1
  9
$MAXACTVP
 70
    64
  9
$PLIMCHECK
 70
     0
  9
$PEXTMIN
 10
1.0000000000000000E+020
 20
1.0000000000000000E+020
 30
1.0000000000000000E+020
  9
$PEXTMAX
 10
-1.0000000000000000E+020
 20
-1.0000000000000000E+020
 30
-1.0000000000000000E+020
  9
$PLIMMIN
 10
0.0
 20
0.0
  9
$PLIMMAX
 10
12.0
 20
9.0
  9
$UNITMODE
 70
     0
  9
$VISRETAIN
 70
     1
  9
$PLINEGEN
 70
     0
  9
$PSLTSCALE
 70
     0
  0
ENDSEC
  0
SECTION
  2
TABLES
  0
TABLE
  2
VPORT
 70
     3
  0
VPORT
  2
*ACTIVE
 70
     0
 10
0.0
 20
0.0
 11
1.0
 21
1.0
 12
-0.0846609285310862
 22
-5.2230813061940458
 13
0.0
 23
0.0
 14
10.0
 24
10.0
 15
10.0
 25
10.0
 16
0.0
 26
0.0
 36
1.0
 17
0.0
 27
0.0
 37
0.0
 40
80.123205074928975
 41
2.0726744186046511
 42
50.0
 43
0.0
 44
0.0
 50
0.0
 51
0.0
 71
     0
 72
   100
 73
     1
 74
     0
 75
     0
 76
     0
 77
     0
 78
     0
  0
ENDTAB
  0
TABLE
  2
LTYPE
 70
     3
  0
LTYPE
  2
CONTINUOUS
 70
     0
  3
Solid line
 72
    65
 73
     0
 40
0.0
  0
LTYPE
  2
MITTKLEIN
 70
     0
  3
__ . __ . ___ 
 72
    65
 73
     4
 40
0.45
 49
0.25
 49
-0.1
 49
0.0
 49
-0.1
  0
LTYPE
  2
VERDECKT
 70
     0
  3
_ _ _ _ _ _ _ _ _ _ _ _ _ _ _ _ _ _ _ _ _ _ _
 72
    65
 73
     2
 40
0.375
 49
0.25
 49
-0.125
  0
ENDTAB
  0
TABLE
  2
LAYER
 70
     5
  0
LAYER
  2
0
 70
     0
 62
     7
  6
CONTINUOUS
  0
LAYER
  2
KON35
 70
     0
 62
     2
  6
CONTINUOUS
  0
LAYER
  2
TEXT35
 70
     0
 62
     2
  6
CONTINUOUS
  0
LAYER
  2
MITTELLI
 70
     0
 62
     1
  6
MITTKLEIN
  0
LAYER
  2
VERDECKT
 70
     0
 62
     1
  6
VERDECKT
  0
ENDTAB
  0
TABLE
  2
STYLE
 70
     3
  0
STYLE
  2
STANDARD
 70
     0
 40
0.0
 41
1.0
 50
0.0
 71
     0
 42
2.5
  3
txt
  4

  0
STYLE
  2
TEXT35
 70
     0
 40
3.5
 41
1.0
 50
0.0
 71
     0
 42
3.5
  3
simplex
  4

  0
STYLE
  2
SIMPLEX
 70
     0
 40
0.0
 41
1.0
 50
0.0
 71
     0
 42
2.0
  3
simplex
  4

  0
ENDTAB
  0
TABLE
  2
VIEW
 70
     0
  0
ENDTAB
  0
TABLE
  2
UCS
 70
     0
  0
ENDTAB
  0
TABLE
  2
APPID
 70
     1
  0
APPID
  2
ACAD
 70
     0
  0
ENDTAB
  0
TABLE
  2
DIMSTYLE
 70
     1
  0
DIMSTYLE
  2
STANDARD
 70
     0
  3

  4

  5

  6

  7

 40
1.0
 41
0.18
 42
0.0625
 43
0.38
 44
0.18
 45
0.0
 46
0.0
 47
0.0
 48
0.0
140
0.18
141
0.09
142
0.0
143
25.399999999999999
144
1.0
145
0.0
146
1.0
147
0.09
 71
     0
 72
     0
 73
     1
 74
     1
 75
     0
 76
     0
 77
     0
 78
     0
170
     0
171
     2
172
     0
173
     0
174
     0
175
     0
176
     0
177
     0
178
     0
  0
ENDTAB
  0
ENDSEC
  0
SECTION
  2
BLOCKS
  0
BLOCK
  8
0
  2
$MODEL_SPACE
 70
     0
 10
0.0
 20
0.0
 30
0.0
  3
$MODEL_SPACE
  1

  0
ENDBLK
  5
B4
  8
0
  0
BLOCK
 67
     1
  8
0
  2
$PAPER_SPACE
 70
     0
 10
0.0
 20
0.0
 30
0.0
  3
$PAPER_SPACE
  1

  0
ENDBLK
  5
B9
 67
     1
  8
0
  0
BLOCK
  8
KON35
  2
ACAD
 70
     0
 10
0.0
 20
0.0
 30
0.0
  3
ACAD
  1

  0
ENDBLK
  5
B
  8
KON35
  0
BLOCK
  8
VERDECKT
  2
CAD
 70
     0
 10
0.0
 20
0.0
 30
0.0
  3
CAD
  1

  0
INSERT
  5
1E
  8
KON35
  2
ACAD
 10
219.7466754081957
 20
258.0988816558845
 30
0.0
  0
ENDBLK
  5
20
  8
VERDECKT
  0
ENDSEC
  0
SECTION
  2
ENTITIES
  0
INSERT
  5
3
  8
KON35
  2
ACAD
 10
611.67473072830069
 20
262.34888165588433
 30
0.0
  0
INSERT
  5
11
  8
KON35
  2
ACAD
 10
1001.6640374469659
 20
269.19283483160649
 30
0.0
  0
INSERT
  5
12
  8
KON35
  2
ACAD
 10
1687.9183674146921
 20
382.30321741200709
 30
0.0
  0
INSERT
  5
15
  8
KON35
  2
ACAD
 10
1001.014675725944
 20
263.03967115788242
 30
0.0
  0
INSERT
  5
16
  8
KON35
  2
ACAD
 10
1201.8720286009509
 20
326.92890892106499
 30
0.0
  0
INSERT
  5
17
  8
KON35
  2
ACAD
 10
1001.003878233722
 20
262.34888165588433
 30
0.0
  0
INSERT
  5
18
  8
KON35
  2
ACAD
 10
1033.981913451516
 20
270.24018600371039
 30
0.0
  0
INSERT
  5
19
  8
KON35
  2
ACAD
 10
1220.3384542935071
 20
310.44614540078669
 30
0.0
  0
INSERT
  5
1A
  8
VERDECKT
  2
CAD
 10
1321.9481047729359
 20
40.273542154209757
 30
0.0
  0
INSERT
  5
21
  8
VERDECKT
  2
CAD
 10
1635.6172637074631
 20
123.4404418294079
 30
0.0
  0
INSERT
  5
22
  8
KON35
  2
ACAD
 10
2241.7967140075689
 20
260.25567566346808
 30
0.0
  0
INSERT
  5
23
  8
KON35
  2
ACAD
 10
2230.2789686957649
 20
463.99045464595349
 30
0.0
  0
LINE
  5
24
  8
MITTELLI
 10
0.0000000000000284
 20
-33.86142789403447
 30
0.0
 11
-0.0000000000000284
 21
34.148550534458082
 31
0.0
  0
LINE
  5
25
  8
MITTELLI
 10
-32.786923182120653
 20
0.0000000000003979
 30
0.0
 11
32.612074441437549
 21
-0.0000000000003979
 31
0.0
  0
LINE
  5
26
  8
0
 10
28.249960200000061
 20
25.74996020000037
 30
0.0
 11
28.249960199999951
 21
-25.74996019999946
 31
0.0
  0
LINE
  5
27
  8
0
 10
-25.749960200000061
 20
28.24996020000048
 30
0.0
 11
25.749960200000061
 21
28.24996020000037
 31
0.0
  0
LINE
  5
28
  8
0
 10
-28.249960200000061
 20
-25.749960199999428
 30
0.0
 11
-28.249960200000061
 21
25.74996020000048
 31
0.0
  0
LINE
  5
29
  8
0
 10
-25.749960200000061
 20
-28.249960199999428
 30
0.0
 11
25.749960199999951
 21
-28.24996019999946
 31
0.0
  0
INSERT
  5
2A
  8
KON35
  2
ACAD
 10
999.76870324790366
 20
265.6336243336047
 30
0.0
  0
INSERT
  5
2B
  8
KON35
  2
ACAD
 10
1686.0230332156291
 20
378.7440069140053
 30
0.0
  0
LINE
  5
2C
  8
0
 10
-25.749960200000061
 20
28.24996020000048
 30
0.0
 11
-28.249960200000061
 21
25.74996020000048
 31
0.0
  0
LINE
  5
2D
  8
0
 10
-25.749960200000061
 20
-28.249960199999428
 30
0.0
 11
-28.249960200000061
 21
-25.749960199999428
 31
0.0
  0
LINE
  5
2E
  8
0
 10
25.749960199999951
 20
-28.24996019999946
 30
0.0
 11
28.249960199999951
 21
-25.74996019999946
 31
0.0
  0
LINE
  5
2F
  8
0
 10
28.249960200000061
 20
25.74996020000037
 30
0.0
 11
25.749960200000061
 21
28.24996020000037
 31
0.0
  0
CIRCLE
  5
34
  8
0
 10
-0.0000000000000284
 20
0.0000000000003411
 30
0.0
 40
19.050000000000001
  0
CIRCLE
  5
35
  8
0
 10
-0.0000000000000284
 20
0.0000000000003411
 30
0.0
 40
3.1749999999999989
  0
CIRCLE
  5
36
  8
0
 10
-23.511300474452661
 20
23.51130047445309
 30
0.0
 40
2.7000000000000002
  0
CIRCLE
  5
37
  8
0
 10
-23.511300474452781
 20
-23.511300474452291
 30
0.0
 40
2.7000000000000002
  0
CIRCLE
  5
38
  8
0
 10
23.5113004744526
 20
-23.51130047445238
 30
0.0
 40
2.7000000000000002
  0
CIRCLE
  5
39
  8
0
 10
23.511300474452721
 20
23.511300474453002
 30
0.0
 40
2.7000000000000002
  0
INSERT
  5
45
  8
KON35
  2
ACAD
 10
522.82707285807555
 20
413.69185239206303
 30
0.0
  0
INSERT
  5
46
  8
KON35
  2
ACAD
 10
912.81637957674172
 20
420.53580556778519
 30
0.0
  0
INSERT
  5
47
  8
KON35
  2
ACAD
 10
1599.070709544467
 20
533.64618814818584
 30
0.0
  0
ARC
  5
48
  8
0
 10
-27.58712655832656
 20
-32.352542432103661
 30
0.0
 40
3.7249051871947061
 50
196.24243683463339
 51
283.75756316536223
  0
LINE
  5
49
  8
0
 10
-27.218545525888789
 20
-36.866492815464511
 30
0.0
 11
-29.44957915192381
 21
-35.578404950902069
 31
0.0
  0
LINE
  5
4A
  8
0
 10
-31.163358800389599
 20
-33.394406916772851
 30
0.0
 11
-30.167222052958799
 21
-31.669047458936198
 31
0.0
  0
LINE
  5
4B
  8
0
 10
-31.163358800389599
 20
-33.394406916772851
 30
0.0
 11
-30.167222052958799
 21
-31.669047458936198
 31
0.0
  0
LINE
  5
4C
  8
0
 10
-27.218545525888789
 20
-36.866492815464511
 30
0.0
 11
-29.44957915192381
 21
-35.578404950902069
 31
0.0
  0
ARC
  5
4D
  8
0
 10
-27.58712655832656
 20
-32.352542432103661
 30
0.0
 40
3.7249051871947061
 50
196.24243683463339
 51
283.75756316536223
  0
ARC
  5
4E
  8
0
 10
-14.224560344052771
 20
-40.067423632977551
 30
0.0
 40
3.7249051871953922
 50
196.24243683464681
 51
283.7575631653587
  0
ARC
  5
4F
  8
0
 10
-16.12830345261241
 20
-27.935041019812701
 30
0.0
 40
13.27998518434897
 50
217.23507674444289
 51
262.76492325555762
  0
ARC
  5
50
  8
0
 10
-27.58712655832656
 20
-32.352542432103661
 30
0.0
 40
3.7249051871947061
 50
196.24243683463339
 51
283.75756316536223
  0
LINE
  5
51
  8
0
 10
-18.31804656368481
 20
-42.005198287214931
 30
0.0
 11
-27.218545525888789
 21
-36.866492815464511
 31
0.0
  0
LINE
  5
52
  8
0
 10
-27.218545525888789
 20
-36.866492815464511
 30
0.0
 11
-29.44957915192381
 21
-35.578404950902069
 31
0.0
  0
LINE
  5
53
  8
0
 10
-16.804655838684791
 20
-39.383928659811403
 30
0.0
 11
-17.800792586116039
 21
-41.109288117648333
 31
0.0
  0
LINE
  5
54
  8
0
 10
-13.338725334046011
 20
-43.685463846773438
 30
0.0
 11
-12.34258858661488
 21
-41.960104388936173
 31
0.0
  0
LINE
  5
55
  8
0
 10
-14.109289376241829
 20
-40.940099212467679
 30
0.0
 11
-12.59589865124158
 21
-38.318829585064208
 31
0.0
  0
LINE
  5
56
  8
0
 10
-25.705154800888891
 20
-34.24522318806109
 30
0.0
 11
-26.701291548319912
 21
-35.97058264589802
 31
0.0
  0
LINE
  5
57
  8
0
 10
-31.163358800389599
 20
-33.394406916772851
 30
0.0
 11
-30.167222052958799
 21
-31.669047458936198
 31
0.0
  0
LINE
  5
58
  8
0
 10
-28.400521263332081
 20
-32.689052635404742
 30
0.0
 11
-26.887130538331942
 21
-30.067783008001271
 31
0.0
  0
LINE
  5
59
  8
0
 10
-10.82919786161497
 20
-39.338834761532752
 30
0.0
 11
-28.65383132795878
 21
-29.047777831532731
 31
0.0
  0
LINE
  5
5A
  8
0
 10
-12.34258858661488
 20
-41.960104388936173
 30
0.0
 11
-30.167222052958799
 21
-31.669047458936198
 31
0.0
  0
LINE
  5
5B
  8
0
 10
-28.65383132795878
 20
-29.047777831532731
 30
0.0
 11
-27.298919205081429
 21
-26.70100119491806
 31
0.0
  0
LINE
  5
5C
  8
0
 10
-16.087012937650481
 20
-43.293286151777089
 30
0.0
 11
-18.31804656368481
 21
-42.005198287214931
 31
0.0
  0
LINE
  5
5D
  8
0
 10
-4.427033148503738
 20
-28.249960199999428
 30
0.0
 11
-10.82919786161497
 21
-39.338834761532752
 31
0.0
  0
LINE
  5
5E
  8
0
 10
26.043323115690519
 20
-27.956597284308909
 30
0.0
 11
26.59654646097632
 21
-28.914808226277241
 31
0.0
  0
LINE
  5
5F
  8
0
 10
27.259669647613539
 20
-34.356997492418678
 30
0.0
 11
25.400474959251341
 21
-35.430404046220438
 31
0.0
  0
LINE
  5
60
  8
0
 10
11.74268523902318
 20
-37.490689001277211
 30
0.0
 11
6.407547978097198
 21
-28.249960199999428
 31
0.0
  0
LINE
  5
61
  8
0
 10
27.85770539847644
 20
-31.09919958244685
 30
0.0
 11
13.0038441765233
 21
-39.675080357446831
 31
0.0
  0
LINE
  5
62
  8
0
 10
26.59654646097632
 20
-28.914808226277302
 30
0.0
 11
11.74268523902318
 21
-37.490689001277211
 31
0.0
  0
LINE
  5
63
  8
0
 10
14.476094834545471
 20
-38.825076043723101
 30
0.0
 11
13.21493589704559
 21
-36.640684687553488
 31
0.0
  0
LINE
  5
64
  8
0
 10
13.83395813271553
 20
-41.112879905644007
 30
0.0
 11
13.0038441765233
 21
-39.675080357446831
 31
0.0
  0
LINE
  5
65
  8
0
 10
16.72223355324817
 20
-37.528267249842848
 30
0.0
 11
17.55234750944086
 21
-38.966066798040259
 31
0.0
  0
LINE
  5
66
  8
0
 10
26.385454740454151
 20
-31.94920389617058
 30
0.0
 11
25.12429580295403
 21
-29.764812540001031
 31
0.0
  0
LINE
  5
67
  8
0
 10
28.6878193546689
 20
-32.536999130644539
 30
0.0
 11
27.85770539847644
 21
-31.09919958244685
 31
0.0
  0
LINE
  5
68
  8
0
 10
24.139316021751451
 20
-33.246012690050833
 30
0.0
 11
24.969429977943911
 21
-34.68381223824823
 31
0.0
  0
LINE
  5
69
  8
0
 10
17.98339249074828
 20
-39.712658606012461
 30
0.0
 11
16.12419780238573
 21
-40.786065159814449
 31
0.0
  0
LINE
  5
6A
  8
0
 10
25.400474959251341
 20
-35.430404046220438
 30
0.0
 11
17.98339249074828
 21
-39.712658606012461
 31
0.0
  0
ARC
  5
6B
  8
0
 10
14.572153974388209
 20
-38.097846394148888
 30
0.0
 40
3.1040876559955879
 50
256.24243683463419
 51
343.75756316536189
  0
ARC
  5
6C
  8
0
 10
16.158606564854459
 20
-27.987527549843861
 30
0.0
 40
11.066654320290811
 50
277.23507674444232
 51
322.7649232555583
  0
ARC
  5
6D
  8
0
 10
25.707625819615679
 20
-31.668778726752379
 30
0.0
 40
3.1040876559961599
 50
256.24243683464448
 51
343.7575631653587
  0
INSERT
  5
6E
  8
KON35
  2
ACAD
 10
912.16701785571934
 20
414.38264189406112
 30
0.0
  0
INSERT
  5
6F
  8
KON35
  2
ACAD
 10
1113.024370730727
 20
478.27187965724369
 30
0.0
  0
INSERT
  5
70
  8
KON35
  2
ACAD
 10
1300.0779962041911
 20
420.53334647513282
 30
0.0
  0
INSERT
  5
71
  8
KON35
  2
ACAD
 10
1986.3323261719161
 20
533.64372905553341
 30
0.0
  0
INSERT
  5
72
  8
KON35
  2
ACAD
 10
1299.428634483168
 20
414.38018280140881
 30
0.0
  0
INSERT
  5
73
  8
KON35
  2
ACAD
 10
1299.428634483168
 20
414.38018280140881
 30
0.0
  0
INSERT
  5
74
  8
KON35
  2
ACAD
 10
1360.500568263212
 20
780.94836347895227
 30
0.0
  0
INSERT
  5
75
  8
KON35
  2
ACAD
 10
1241.5095047972579
 20
696.76600267105789
 30
0.0
  0
INSERT
  5
76
  8
KON35
  2
ACAD
 10
1692.930045353
 20
417.13372439587459
 30
0.0
  0
TEXT
  5
77
  8
TEXT35
 10
1329.627191253255
 20
270.53186512989572
 30
0.0
 40
3.5
  1

  7
TEXT35
  0
INSERT
  5
7A
  8
KON35
  2
ACAD
 10
1740.2609349375091
 20
613.22936655822059
 30
0.0
  0
INSERT
  5
7B
  8
KON35
  2
ACAD
 10
1972.4266957587979
 20
617.29567051613037
 30
0.0
  0
INSERT
  5
7C
  8
KON35
  2
ACAD
 10
1949.7096811695701
 20
616.24783213446221
 30
0.0
  0
INSERT
  5
7D
  8
KON35
  2
ACAD
 10
2355.1378771877671
 20
616.48759033137856
 30
0.0
  0
INSERT
  5
7E
  8
KON35
  2
ACAD
 10
2355.1378771877671
 20
616.48759033137856
 30
0.0
  0
INSERT
  5
7F
  8
KON35
  2
ACAD
 10
2764.7471325791512
 20
617.16823033551805
 30
0.0
  0
INSERT
  5
80
  8
KON35
  2
ACAD
 10
2996.912893400442
 20
621.23453429342771
 30
0.0
  0
INSERT
  5
81
  8
KON35
  2
ACAD
 10
2282.8232362264648
 20
431.28259576526
 30
0.0
  0
INSERT
  5
82
  8
KON35
  2
ACAD
 10
1298.0543677782921
 20
415.07585246798652
 30
0.0
  0
INSERT
  5
83
  8
KON35
  2
ACAD
 10
1298.0543677782921
 20
415.07585246798652
 30
0.0
  0
INSERT
  5
84
  8
KON35
  2
ACAD
 10
1359.1263015583361
 20
781.64403314552987
 30
0.0
  0
INSERT
  5
85
  8
KON35
  2
ACAD
 10
1240.135238092382
 20
697.4616723376356
 30
0.0
  0
INSERT
  5
86
  8
KON35
  2
ACAD
 10
1691.555778648124
 20
417.82939406245242
 30
0.0
  0
TEXT
  5
87
  8
TEXT35
 10
1328.252924548379
 20
271.22753479647338
 30
0.0
 40
3.5
  1

  7
TEXT35
  0
INSERT
  5
88
  8
KON35
  2
ACAD
 10
1738.886668232632
 20
613.9250362247983
 30
0.0
  0
INSERT
  5
89
  8
KON35
  2
ACAD
 10
1971.0524290539231
 20
617.99134018270809
 30
0.0
  0
INSERT
  5
8A
  8
KON35
  2
ACAD
 10
1948.3354144646939
 20
616.94350180104004
 30
0.0
  0
INSERT
  5
8B
  8
KON35
  2
ACAD
 10
2353.7636104828912
 20
617.18325999795638
 30
0.0
  0
INSERT
  5
8C
  8
KON35
  2
ACAD
 10
2353.7636104828912
 20
617.18325999795638
 30
0.0
  0
INSERT
  5
8D
  8
KON35
  2
ACAD
 10
2763.3728658742748
 20
617.86390000209565
 30
0.0
  0
INSERT
  5
8E
  8
KON35
  2
ACAD
 10
2995.5386266955661
 20
621.93020396000554
 30
0.0
  0
INSERT
  5
8F
  8
KON35
  2
ACAD
 10
2281.4489695215898
 20
431.97826543183788
 30
0.0
  0
INSERT
  5
90
  8
KON35
  2
ACAD
 10
913.55257010251569
 20
413.68939329941071
 30
0.0
  0
INSERT
  5
91
  8
KON35
  2
ACAD
 10
1099.909110944506
 20
453.89535269648701
 30
0.0
  0
INSERT
  5
92
  8
VERDECKT
  2
CAD
 10
1201.5187614239351
 20
183.72274944991
 30
0.0
  0
INSERT
  5
93
  8
VERDECKT
  2
CAD
 10
1515.187920358462
 20
266.88964912510812
 30
0.0
  0
INSERT
  5
94
  8
KON35
  2
ACAD
 10
2121.3673706585678
 20
403.7048829591684
 30
0.0
  0
INSERT
  5
95
  8
KON35
  2
ACAD
 10
2109.8496253467629
 20
607.43966194165375
 30
0.0
  0
ENDSEC
  0
EOF
