  0
SECTION
  2
HEADER
  9
$ACADVER
  1
AC1009
  9
$INSBASE
 10
0.0
 20
0.0
 30
0.0
  9
$EXTMIN
 10
-35.648197718673032
 20
-53.758025336057351
 30
-0.000000000000001
  9
$EXTMAX
 10
110.7210143337574
 20
43.00273708655299
 30
0.0000000000000145
  9
$LIMMIN
 10
0.0
 20
0.0
  9
$LIMMAX
 10
410.0
 20
287.0
  9
$ORTHOMODE
 70
     1
  9
$REGENMODE
 70
     1
  9
$FILLMODE
 70
     1
  9
$QTEXTMODE
 70
     0
  9
$MIRRTEXT
 70
     1
  9
$DRAGMODE
 70
     2
  9
$LTSCALE
 40
25.0
  9
$OSMODE
 70
    39
  9
$ATTMODE
 70
     1
  9
$TEXTSIZE
 40
2.5
  9
$TRACEWID
 40
0.6
  9
$TEXTSTYLE
  7
Standard
  9
$CLAYER
  8
0
  9
$CELTYPE
  6
BYLAYER
  9
$CECOLOR
 62
   256
  9
$DIMSCALE
 40
1.0
  9
$DIMASZ
 40
3.5
  9
$DIMEXO
 40
0.1
  9
$DIMDLI
 40
7.0
  9
$DIMRND
 40
0.0
  9
$DIMDLE
 40
0.0
  9
$DIMEXE
 40
1.8
  9
$DIMTP
 40
0.0
  9
$DIMTM
 40
0.0
  9
$DIMTXT
 40
3.5
  9
$DIMCEN
 40
1.5
  9
$DIMTSZ
 40
0.0
  9
$DIMTOL
 70
     0
  9
$DIMLIM
 70
     0
  9
$DIMTIH
 70
     0
  9
$DIMTOH
 70
     0
  9
$DIMSE1
 70
     0
  9
$DIMSE2
 70
     0
  9
$DIMTAD
 70
     1
  9
$DIMZIN
 70
     0
  9
$DIMBLK
  1

  9
$DIMASO
 70
     0
  9
$DIMSHO
 70
     1
  9
$DIMPOST
  1

  9
$DIMAPOST
  1

  9
$DIMALT
 70
     0
  9
$DIMALTD
 70
     2
  9
$DIMALTF
 40
25.399999999999999
  9
$DIMLFAC
 40
1.0
  9
$DIMTOFL
 70
     0
  9
$DIMTVP
 40
0.0
  9
$DIMTIX
 70
     0
  9
$DIMSOXD
 70
     0
  9
$DIMSAH
 70
     0
  9
$DIMBLK1
  1

  9
$DIMBLK2
  1

  9
$DIMSTYLE
  2
STANDARD
  9
$DIMCLRD
 70
     0
  9
$DIMCLRE
 70
     0
  9
$DIMCLRT
 70
     0
  9
$DIMTFAC
 40
1.0
  9
$DIMGAP
 40
0.09
  9
$LUNITS
 70
     2
  9
$LUPREC
 70
     1
  9
$SKETCHINC
 40
0.1
  9
$FILLETRAD
 40
0.0
  9
$AUNITS
 70
     0
  9
$AUPREC
 70
     0
  9
$MENU
  1
acad
  9
$ELEVATION
 40
0.0
  9
$PELEVATION
 40
0.0
  9
$THICKNESS
 40
0.0
  9
$LIMCHECK
 70
     0
  9
$BLIPMODE
 70
     0
  9
$CHAMFERA
 40
1.0
  9
$CHAMFERB
 40
1.0
  9
$SKPOLY
 70
     0
  9
$TDCREATE
 40
2449016.4831520831
  9
$TDUPDATE
 40
2452677.7426464348
  9
$TDINDWG
 40
0.1297832407
  9
$TDUSRTIMER
 40
0.1297815046
  9
$USRTIMER
 70
     1
  9
$ANGBASE
 50
0.0
  9
$ANGDIR
 70
     0
  9
$PDMODE
 70
     0
  9
$PDSIZE
 40
0.0
  9
$PLINEWID
 40
0.0
  9
$COORDS
 70
     0
  9
$SPLFRAME
 70
     0
  9
$SPLINETYPE
 70
     6
  9
$SPLINESEGS
 70
     8
  9
$ATTDIA
 70
     0
  9
$ATTREQ
 70
     1
  9
$HANDLING
 70
  4097
  9
$HANDSEED
  5
3A8
  9
$SURFTAB1
 70
     6
  9
$SURFTAB2
 70
     6
  9
$SURFTYPE
 70
     6
  9
$SURFU
 70
     6
  9
$SURFV
 70
     6
  9
$UCSNAME
  2

  9
$UCSORG
 10
0.0
 20
0.0
 30
0.0
  9
$UCSXDIR
 10
1.0
 20
0.0
 30
0.0
  9
$UCSYDIR
 10
0.0
 20
1.0
 30
0.0
  9
$PUCSNAME
  2

  9
$PUCSORG
 10
0.0
 20
0.0
 30
0.0
  9
$PUCSXDIR
 10
1.0
 20
0.0
 30
0.0
  9
$PUCSYDIR
 10
0.0
 20
1.0
 30
0.0
  9
$USERI1
 70
     0
  9
$USERI2
 70
     0
  9
$USERI3
 70
     0
  9
$USERI4
 70
     0
  9
$USERI5
 70
     0
  9
$USERR1
 40
0.0
  9
$USERR2
 40
0.0
  9
$USERR3
 40
0.0
  9
$USERR4
 40
0.0
  9
$USERR5
 40
0.0
  9
$WORLDVIEW
 70
     1
  9
$SHADEDGE
 70
     3
  9
$SHADEDIF
 70
    70
  9
$TILEMODE
 70
     1
  9
$MAXACTVP
 70
    48
  9
$PLIMCHECK
 70
     0
  9
$PEXTMIN
 10
1.0000000000000000E+020
 20
1.0000000000000000E+020
 30
1.0000000000000000E+020
  9
$PEXTMAX
 10
-1.0000000000000000E+020
 20
-1.0000000000000000E+020
 30
-1.0000000000000000E+020
  9
$PLIMMIN
 10
0.0
 20
0.0
  9
$PLIMMAX
 10
12.0
 20
9.0
  9
$UNITMODE
 70
     0
  9
$VISRETAIN
 70
     1
  9
$PLINEGEN
 70
     0
  9
$PSLTSCALE
 70
     0
  0
ENDSEC
  0
SECTION
  2
TABLES
  0
TABLE
  2
VPORT
 70
     3
  0
VPORT
  2
*ACTIVE
 70
     0
 10
0.0
 20
0.0
 11
1.0
 21
1.0
 12
37.536408307542231
 22
-5.3776441247521802
 13
0.0
 23
0.0
 14
0.5
 24
0.5
 15
10.0
 25
10.0
 16
0.0
 26
0.0
 36
1.0
 17
0.0
 27
0.0
 37
0.0
 40
98.458319658094752
 41
2.126099706744867
 42
50.0
 43
0.0
 44
0.0
 50
0.0
 51
0.0
 71
     0
 72
   100
 73
     1
 74
     0
 75
     0
 76
     0
 77
     0
 78
     0
  0
ENDTAB
  0
TABLE
  2
LTYPE
 70
     2
  0
LTYPE
  2
CONTINUOUS
 70
     0
  3
Solid line
 72
    65
 73
     0
 40
0.0
  0
LTYPE
  2
MITTKLEIN
 70
     0
  3
__ . __ . ___ 
 72
    65
 73
     4
 40
0.45
 49
0.25
 49
-0.1
 49
0.0
 49
-0.1
  0
ENDTAB
  0
TABLE
  2
LAYER
 70
     2
  0
LAYER
  2
0
 70
     0
 62
     7
  6
CONTINUOUS
  0
LAYER
  2
MITTELLI
 70
     0
 62
     1
  6
MITTKLEIN
  0
ENDTAB
  0
TABLE
  2
STYLE
 70
     5
  0
STYLE
  2
Standard
 70
     0
 40
0.0
 41
1.0
 50
0.0
 71
     0
 42
0.2
  3
txt
  4

  0
STYLE
  2
Standard
 70
     0
 40
0.0
 41
1.0
 50
0.0
 71
     0
 42
2.5
  3
txt
  4

  0
STYLE
  2
STANDARD
 70
     0
 40
0.0
 41
1.0
 50
0.0
 71
     0
 42
2.5
  3
txt
  4

  0
STYLE
  2
SIMPLEX
 70
     0
 40
0.0
 41
0.8
 50
0.0
 71
     0
 42
8.0
  3
simplex
  4

  0
STYLE
  2

 70
     0
 40
0.0
 41
0.0
 50
0.0
 71
     0
 42
0.0
  3
txt
  4

  0
ENDTAB
  0
TABLE
  2
VIEW
 70
     0
  0
ENDTAB
  0
TABLE
  2
UCS
 70
     0
  0
ENDTAB
  0
TABLE
  2
APPID
 70
     1
  0
APPID
  2
ACAD
 70
     0
  0
ENDTAB
  0
TABLE
  2
DIMSTYLE
 70
     1
  0
DIMSTYLE
  2
STANDARD
 70
     0
  3

  4

  5

  6

  7

 40
1.0
 41
0.18
 42
0.0625
 43
0.38
 44
0.18
 45
0.0
 46
0.0
 47
0.0
 48
0.0
140
0.18
141
0.09
142
0.0
143
25.399999999999999
144
1.0
145
0.0
146
1.0
147
0.09
 71
     0
 72
     0
 73
     1
 74
     1
 75
     0
 76
     0
 77
     0
 78
     0
170
     0
171
     2
172
     0
173
     0
174
     0
175
     0
176
     0
177
     0
178
     0
  0
ENDTAB
  0
ENDSEC
  0
SECTION
  2
BLOCKS
  0
BLOCK
  8
0
  2
$MODEL_SPACE
 70
     0
 10
0.0
 20
0.0
 30
0.0
  3
$MODEL_SPACE
  1

  0
ENDBLK
  5
21B
  8
0
  0
BLOCK
 67
     1
  8
0
  2
$PAPER_SPACE
 70
     0
 10
0.0
 20
0.0
 30
0.0
  3
$PAPER_SPACE
  1

  0
ENDBLK
  5
217
 67
     1
  8
0
  0
ENDSEC
  0
SECTION
  2
ENTITIES
  0
LINE
  5
22C
  8
0
 10
76.017652710853653
 20
-43.000000000000057
 30
0.0
 11
0.0
 21
-42.999999999999929
 31
0.0
  0
LINE
  5
22D
  8
MITTELLI
 10
110.7093990204087
 20
0.000000000000032
 30
0.0
 11
-35.617624204553863
 21
0.0000000000000014
 31
0.0
  0
LINE
  5
22E
  8
0
 10
104.1999999999999
 20
43.000000000000099
 30
0.0
 11
0.0
 21
42.999999999999929
 31
0.0
  0
LINE
  5
22F
  8
0
 10
53.199999999999818
 20
42.999999999999929
 30
0.0
 11
53.199999999999818
 21
-42.999999999999979
 31
0.0
  0
LINE
  5
230
  8
0
 10
5.6999999999998172
 20
42.999999999999929
 30
0.0
 11
5.6999999999998172
 21
-43.0
 31
0.0
  0
LINE
  5
231
  8
0
 10
0.0
 20
42.999999999999929
 30
0.0
 11
0.0
 21
-42.999999999999929
 31
0.0
  0
LINE
  5
232
  8
0
 10
-1.5
 20
36.5
 30
0.0
 11
-1.5
 21
-36.5
 31
0.0
  0
TEXT
  5
233
  8
0
 10
9.4634978705873891
 20
-38.719024203175287
 30
0.0
 40
3.2000000000000002
  1
SM 87.1.18 H200
  7
SIMPLEX
  0
LINE
  5
234
  8
0
 10
-1.5
 20
-36.5
 30
0.0
 11
0.0
 21
-36.5
 31
0.0
  0
LINE
  5
235
  8
0
 10
-1.5
 20
5.0
 30
0.0
 11
-30.5
 21
5.0
 31
0.0
  0
LINE
  5
236
  8
0
 10
-1.5
 20
-5.0
 30
0.0
 11
-30.5
 21
-5.0
 31
0.0
  0
LINE
  5
237
  8
0
 10
-30.5
 20
5.0
 30
0.0
 11
-31.5
 21
4.0
 31
0.0
  0
LINE
  5
238
  8
0
 10
-30.5
 20
5.0
 30
0.0
 11
-30.5
 21
-5.0
 31
0.0
  0
LINE
  5
239
  8
0
 10
-30.5
 20
-5.0
 30
0.0
 11
-31.5
 21
-4.0
 31
0.0
  0
LINE
  5
23A
  8
0
 10
-31.5
 20
4.0
 30
0.0
 11
-31.5
 21
-4.0
 31
0.0
  0
LINE
  5
23B
  8
0
 10
-1.5
 20
36.5
 30
0.0
 11
0.0
 21
36.5
 31
0.0
  0
LINE
  5
23C
  8
0
 10
101.1999999999999
 20
42.999999999999929
 30
0.0
 11
101.1999999999999
 21
-42.999999999999979
 31
0.0
  0
LINE
  5
23D
  8
0
 10
104.1999999999999
 20
43.000000000000099
 30
0.0
 11
104.1999999999999
 21
-43.000000000000057
 31
0.0
  0
LINE
  5
23E
  8
0
 10
104.1999999999999
 20
-43.000000000000057
 30
0.0
 11
96.957800388073693
 21
-43.000000000000057
 31
0.0
  0
LINE
  5
23F
  8
0
 10
104.1999999999999
 20
-43.000000000000028
 30
0.0
 11
101.1999999999999
 21
-43.000000000000028
 31
0.0
  0
LINE
  5
240
  8
0
 10
106.6999999999999
 20
-39.879100808545267
 30
0.0
 11
106.6999999999999
 21
-38.5
 31
0.0
  0
ARC
  5
241
  8
0
 10
106.1999999999998
 20
-36.120899191454697
 30
0.0
 40
0.5
 50
0.0
 51
86.566369637550437
  0
LINE
  5
242
  8
0
 10
106.6999999999999
 20
-36.120899191454697
 30
0.0
 11
106.6999999999999
 21
-37.499999999999957
 31
0.0
  0
ARC
  5
243
  8
0
 10
106.1999999999998
 20
-39.879100808545267
 30
0.0
 40
0.5
 50
273.43363036244961
 51
0.0
  0
LINE
  5
244
  8
0
 10
105.6999999999999
 20
-38.5
 30
0.0
 11
105.6999999999999
 21
-37.5
 31
0.0
  0
LINE
  5
245
  8
0
 10
106.2299461453637
 20
-40.37820323127815
 30
0.0
 11
104.1999999999999
 21
-40.499999999999993
 31
0.0
  0
LINE
  5
246
  8
0
 10
106.6999999999999
 20
-38.5
 30
0.0
 11
105.6999999999999
 21
-38.5
 31
0.0
  0
LINE
  5
247
  8
0
 10
106.6999999999999
 20
-37.5
 30
0.0
 11
105.6999999999999
 21
-37.5
 31
0.0
  0
LINE
  5
248
  8
0
 10
106.2299461453637
 20
-35.621796768721829
 30
0.0
 11
104.1999999999999
 21
-35.499999999999957
 31
0.0
  0
ARC
  5
249
  8
0
 10
106.1999999999998
 20
39.879100808545267
 30
0.0
 40
0.5
 50
0.0
 51
86.566369637550437
  0
LINE
  5
24A
  8
0
 10
106.6999999999999
 20
36.120899191454697
 30
0.0
 11
106.6999999999999
 21
37.499999999999957
 31
0.0
  0
ARC
  5
24B
  8
0
 10
106.1999999999998
 20
36.120899191454697
 30
0.0
 40
0.5
 50
273.43363036244961
 51
0.0
  0
LINE
  5
24C
  8
0
 10
106.6999999999999
 20
39.879100808545267
 30
0.0
 11
106.6999999999999
 21
38.5
 31
0.0
  0
LINE
  5
24D
  8
0
 10
105.6999999999999
 20
38.5
 30
0.0
 11
105.6999999999999
 21
37.5
 31
0.0
  0
LINE
  5
24E
  8
0
 10
106.2299461453637
 20
35.621796768721829
 30
0.0
 11
104.1999999999999
 21
35.499999999999957
 31
0.0
  0
LINE
  5
24F
  8
0
 10
106.6999999999999
 20
37.5
 30
0.0
 11
105.6999999999999
 21
37.5
 31
0.0
  0
LINE
  5
250
  8
0
 10
106.6999999999999
 20
38.5
 30
0.0
 11
105.6999999999999
 21
38.5
 31
0.0
  0
LINE
  5
251
  8
0
 10
106.2299461453637
 20
40.37820323127815
 30
0.0
 11
104.1999999999999
 21
40.499999999999993
 31
0.0
  0
ARC
  5
350
  8
0
 10
86.596979972551821
 20
-57.160859343328987
 30
0.0
 40
14.93141625830204
 50
56.894423584626743
 51
123.1055764153712
  0
ARC
  5
351
  8
0
 10
86.48772654946373
 20
-57.192137778978349
 30
0.0
 40
17.005580066645241
 50
54.200970993750452
 51
125.7990290062495
  0
LINE
  5
352
  8
0
 10
76.017652710853639
 20
-44.841823036288652
 30
0.0
 11
76.017652710853639
 21
-33.625916632134263
 31
0.0
  0
LINE
  5
353
  8
0
 10
96.957800388073636
 20
-33.625916632134661
 30
0.0
 11
96.957800388073636
 21
-44.653326147505723
 31
0.0
  0
ARC
  5
354
  8
0
 10
86.487726549463616
 20
-43.225102381545163
 30
0.0
 40
8.6696087345522432
 50
245.3219483027552
 51
294.6780516972446
  0
ARC
  5
355
  8
0
 10
86.487726549463616
 20
-58.14702237432725
 30
0.0
 40
8.5330334904247067
 50
65.122103603562763
 51
114.87789639643719
  0
LINE
  5
356
  8
0
 10
86.487726549461456
 20
-53.736398831964223
 30
0.0
 11
80.253158301180406
 21
-52.832361296403711
 31
0.0
  0
LINE
  5
357
  8
0
 10
86.487726549461456
 20
-47.65881777485329
 30
0.0
 11
80.253158301180406
 21
-48.562855310413859
 31
0.0
  0
LINE
  5
358
  8
0
 10
86.487726549463616
 20
-43.948394907271812
 30
0.0
 11
80.253158301182637
 21
-44.852432442832381
 31
0.0
  0
ARC
  5
359
  8
0
 10
78.39691993774403
 20
-44.888132888009572
 30
0.0
 40
2.3797178696897441
 50
141.2730537724938
 51
241.89179587316031
  0
LINE
  5
35A
  8
0
 10
77.27574397438832
 20
-50.697608303408749
 30
0.0
 11
77.275743974388092
 21
-46.98718543582887
 31
0.0
  0
LINE
  5
35B
  8
0
 10
80.253158301180406
 20
-48.562855310413859
 30
0.0
 11
77.275743974386003
 21
-50.697608303410291
 31
0.0
  0
LINE
  5
35C
  8
0
 10
80.253158301180079
 20
-52.832361296406773
 30
0.0
 11
77.275743974386003
 21
-50.697608303410291
 31
0.0
  0
ARC
  5
35D
  8
0
 10
83.124315737485915
 20
-50.764735127133221
 30
0.0
 40
0.4243268062755158
 50
122.23224679872889
 51
232.8392969757243
  0
LINE
  5
35E
  8
0
 10
80.253158301182637
 20
-44.852432442832381
 30
0.0
 11
77.275743974388092
 21
-46.98718543582887
 31
0.0
  0
LINE
  5
35F
  8
0
 10
78.441686916256089
 20
-46.151225132146308
 30
0.0
 11
78.441686916256089
 21
-44.653326147505723
 31
0.0
  0
LINE
  5
360
  8
0
 10
80.253158301182637
 20
-44.852432442832381
 30
0.0
 11
80.253158301182637
 21
-48.562855310413532
 31
0.0
  0
LINE
  5
361
  8
0
 10
92.72229479774461
 20
-44.852432442832381
 30
0.0
 11
95.699709124539055
 21
-46.98718543582887
 31
0.0
  0
LINE
  5
362
  8
0
 10
92.722294797746926
 20
-52.832361296403711
 30
0.0
 11
95.699709124541286
 21
-50.697608303407222
 31
0.0
  0
LINE
  5
363
  8
0
 10
92.722294797746926
 20
-48.562855310413859
 30
0.0
 11
95.699709124541286
 21
-50.697608303410291
 31
0.0
  0
LINE
  5
364
  8
0
 10
86.487726549465719
 20
-53.736398831964223
 30
0.0
 11
92.722294797746926
 21
-52.832361296403711
 31
0.0
  0
ARC
  5
365
  8
0
 10
89.851137361441317
 20
-50.764735127133221
 30
0.0
 40
0.4243268062755158
 50
307.16070302427562
 51
57.767753201270999
  0
LINE
  5
366
  8
0
 10
86.487726549465719
 20
-47.65881777485329
 30
0.0
 11
92.722294797746926
 21
-48.562855310413859
 31
0.0
  0
LINE
  5
367
  8
0
 10
86.487726549463616
 20
-43.948394907271812
 30
0.0
 11
92.72229479774461
 21
-44.852432442832381
 31
0.0
  0
LINE
  5
368
  8
0
 10
86.487726549463616
 20
-43.948394907271812
 30
0.0
 11
86.487726549463616
 21
-47.658817774852999
 31
0.0
  0
LINE
  5
369
  8
0
 10
92.72229479774461
 20
-44.852432442832381
 30
0.0
 11
92.72229479774461
 21
-48.562855310413532
 31
0.0
  0
LINE
  5
36A
  8
0
 10
95.699709124541286
 20
-50.697608303407222
 30
0.0
 11
95.699709124539055
 21
-46.98718543582887
 31
0.0
  0
ARC
  5
36B
  8
0
 10
94.578532953100918
 20
-44.888132845362712
 30
0.0
 40
2.3797180053420761
 50
298.10820806217282
 51
38.726942292199382
  0
LINE
  5
36C
  8
0
 10
94.752273028847924
 20
-46.151225132146308
 30
0.0
 11
94.752273028847924
 21
-44.653326147505723
 31
0.0
  0
ARC
  5
36D
  8
0
 10
86.487726549463503
 20
-40.650378869081933
 30
0.0
 40
12.60815275542957
 50
33.857998802880211
 51
146.14200119711711
  0
ENDSEC
  0
EOF
