  0
SECTION
  2
HEADER
  9
$ACADVER
  1
AC1009
  9
$INSBASE
 10
0.0
 20
0.0
 30
0.0
  9
$EXTMIN
 10
-31.526945376737441
 20
-64.433211868713784
 30
-0.0000000000000023
  9
$EXTMAX
 10
213.26053032598949
 20
43.000100065843071
 30
0.0000000000000132
  9
$LIMMIN
 10
0.0
 20
0.0
  9
$LIMMAX
 10
410.0
 20
287.0
  9
$ORTHOMODE
 70
     1
  9
$REGENMODE
 70
     1
  9
$FILLMODE
 70
     1
  9
$QTEXTMODE
 70
     0
  9
$MIRRTEXT
 70
     1
  9
$DRAGMODE
 70
     2
  9
$LTSCALE
 40
25.0
  9
$OSMODE
 70
    39
  9
$ATTMODE
 70
     1
  9
$TEXTSIZE
 40
5.0
  9
$TRACEWID
 40
0.6
  9
$TEXTSTYLE
  7
TEXT50
  9
$CLAYER
  8
0
  9
$CELTYPE
  6
BYLAYER
  9
$CECOLOR
 62
   256
  9
$DIMSCALE
 40
1.0
  9
$DIMASZ
 40
3.5
  9
$DIMEXO
 40
0.1
  9
$DIMDLI
 40
7.0
  9
$DIMRND
 40
0.0
  9
$DIMDLE
 40
0.0
  9
$DIMEXE
 40
1.8
  9
$DIMTP
 40
0.0
  9
$DIMTM
 40
0.0
  9
$DIMTXT
 40
3.5
  9
$DIMCEN
 40
1.5
  9
$DIMTSZ
 40
0.0
  9
$DIMTOL
 70
     0
  9
$DIMLIM
 70
     0
  9
$DIMTIH
 70
     0
  9
$DIMTOH
 70
     0
  9
$DIMSE1
 70
     0
  9
$DIMSE2
 70
     0
  9
$DIMTAD
 70
     1
  9
$DIMZIN
 70
     0
  9
$DIMBLK
  1

  9
$DIMASO
 70
     0
  9
$DIMSHO
 70
     1
  9
$DIMPOST
  1

  9
$DIMAPOST
  1

  9
$DIMALT
 70
     0
  9
$DIMALTD
 70
     2
  9
$DIMALTF
 40
25.399999999999999
  9
$DIMLFAC
 40
1.0
  9
$DIMTOFL
 70
     0
  9
$DIMTVP
 40
0.0
  9
$DIMTIX
 70
     0
  9
$DIMSOXD
 70
     0
  9
$DIMSAH
 70
     0
  9
$DIMBLK1
  1

  9
$DIMBLK2
  1

  9
$DIMSTYLE
  2
STANDARD
  9
$DIMCLRD
 70
     0
  9
$DIMCLRE
 70
     0
  9
$DIMCLRT
 70
     0
  9
$DIMTFAC
 40
1.0
  9
$DIMGAP
 40
0.09
  9
$LUNITS
 70
     2
  9
$LUPREC
 70
     1
  9
$SKETCHINC
 40
0.1
  9
$FILLETRAD
 40
0.0
  9
$AUNITS
 70
     0
  9
$AUPREC
 70
     0
  9
$MENU
  1
acad
  9
$ELEVATION
 40
0.0
  9
$PELEVATION
 40
0.0
  9
$THICKNESS
 40
0.0
  9
$LIMCHECK
 70
     0
  9
$BLIPMODE
 70
     0
  9
$CHAMFERA
 40
1.0
  9
$CHAMFERB
 40
1.0
  9
$SKPOLY
 70
     0
  9
$TDCREATE
 40
2449016.4831520831
  9
$TDUPDATE
 40
2452677.7493104162
  9
$TDINDWG
 40
0.1331115394
  9
$TDUSRTIMER
 40
0.1331115394
  9
$USRTIMER
 70
     1
  9
$ANGBASE
 50
0.0
  9
$ANGDIR
 70
     0
  9
$PDMODE
 70
     0
  9
$PDSIZE
 40
0.0
  9
$PLINEWID
 40
0.0
  9
$COORDS
 70
     0
  9
$SPLFRAME
 70
     0
  9
$SPLINETYPE
 70
     6
  9
$SPLINESEGS
 70
     8
  9
$ATTDIA
 70
     0
  9
$ATTREQ
 70
     1
  9
$HANDLING
 70
  4097
  9
$HANDSEED
  5
3095
  9
$SURFTAB1
 70
     6
  9
$SURFTAB2
 70
     6
  9
$SURFTYPE
 70
     6
  9
$SURFU
 70
     6
  9
$SURFV
 70
     6
  9
$UCSNAME
  2

  9
$UCSORG
 10
0.0
 20
0.0
 30
0.0
  9
$UCSXDIR
 10
1.0
 20
0.0
 30
0.0
  9
$UCSYDIR
 10
0.0
 20
1.0
 30
0.0
  9
$PUCSNAME
  2

  9
$PUCSORG
 10
0.0
 20
0.0
 30
0.0
  9
$PUCSXDIR
 10
1.0
 20
0.0
 30
0.0
  9
$PUCSYDIR
 10
0.0
 20
1.0
 30
0.0
  9
$USERI1
 70
     0
  9
$USERI2
 70
     0
  9
$USERI3
 70
     0
  9
$USERI4
 70
     0
  9
$USERI5
 70
     0
  9
$USERR1
 40
0.0
  9
$USERR2
 40
0.0
  9
$USERR3
 40
0.0
  9
$USERR4
 40
0.0
  9
$USERR5
 40
0.0
  9
$WORLDVIEW
 70
     1
  9
$SHADEDGE
 70
     3
  9
$SHADEDIF
 70
    70
  9
$TILEMODE
 70
     1
  9
$MAXACTVP
 70
    48
  9
$PLIMCHECK
 70
     0
  9
$PEXTMIN
 10
1.0000000000000000E+020
 20
1.0000000000000000E+020
 30
1.0000000000000000E+020
  9
$PEXTMAX
 10
-1.0000000000000000E+020
 20
-1.0000000000000000E+020
 30
-1.0000000000000000E+020
  9
$PLIMMIN
 10
0.0
 20
0.0
  9
$PLIMMAX
 10
12.0
 20
9.0
  9
$UNITMODE
 70
     0
  9
$VISRETAIN
 70
     1
  9
$PLINEGEN
 70
     0
  9
$PSLTSCALE
 70
     0
  0
ENDSEC
  0
SECTION
  2
TABLES
  0
TABLE
  2
VPORT
 70
     4
  0
VPORT
  2
*ACTIVE
 70
     0
 10
0.0
 20
0.0
 11
1.0
 21
1.0
 12
90.866792474626024
 22
-10.716555901435351
 13
0.0
 23
0.0
 14
0.5
 24
0.5
 15
10.0
 25
10.0
 16
0.0
 26
0.0
 36
1.0
 17
0.0
 27
0.0
 37
0.0
 40
116.08457441247531
 41
2.126099706744867
 42
50.0
 43
0.0
 44
0.0
 50
0.0
 51
0.0
 71
     0
 72
   100
 73
     1
 74
     0
 75
     0
 76
     0
 77
     0
 78
     0
  0
ENDTAB
  0
TABLE
  2
LTYPE
 70
     2
  0
LTYPE
  2
CONTINUOUS
 70
     0
  3
Solid line
 72
    65
 73
     0
 40
0.0
  0
LTYPE
  2
MITTKLEIN
 70
     0
  3
__ . __ . ___ 
 72
    65
 73
     4
 40
0.45
 49
0.25
 49
-0.1
 49
0.0
 49
-0.1
  0
ENDTAB
  0
TABLE
  2
LAYER
 70
     2
  0
LAYER
  2
0
 70
     0
 62
     7
  6
CONTINUOUS
  0
LAYER
  2
MITTELLI
 70
     0
 62
     1
  6
MITTKLEIN
  0
ENDTAB
  0
TABLE
  2
STYLE
 70
     4
  0
STYLE
  2
STANDARD
 70
     0
 40
0.0
 41
1.0
 50
0.0
 71
     0
 42
0.2
  3
txt
  4

  0
STYLE
  2
TEXT50
 70
     0
 40
5.0
 41
1.0
 50
0.0
 71
     0
 42
5.0
  3
8simplex
  4

  0
STYLE
  2
TXT
 70
     0
 40
0.0
 41
1.0
 50
0.0
 71
     0
 42
2.5
  3
8txt
  4

  0
STYLE
  2
SIMPLEX
 70
     0
 40
0.0
 41
0.8
 50
0.0
 71
     0
 42
8.0
  3
simplex
  4

  0
ENDTAB
  0
TABLE
  2
VIEW
 70
     0
  0
ENDTAB
  0
TABLE
  2
UCS
 70
     0
  0
ENDTAB
  0
TABLE
  2
APPID
 70
     1
  0
APPID
  2
ACAD
 70
     0
  0
ENDTAB
  0
TABLE
  2
DIMSTYLE
 70
     1
  0
DIMSTYLE
  2
STANDARD
 70
     0
  3

  4

  5

  6

  7

 40
1.0
 41
0.18
 42
0.0625
 43
0.38
 44
0.18
 45
0.0
 46
0.0
 47
0.0
 48
0.0
140
0.18
141
0.09
142
0.0
143
25.399999999999999
144
1.0
145
0.0
146
1.0
147
0.09
 71
     0
 72
     0
 73
     1
 74
     1
 75
     0
 76
     0
 77
     0
 78
     0
170
     0
171
     2
172
     0
173
     0
174
     0
175
     0
176
     0
177
     0
178
     0
  0
ENDTAB
  0
ENDSEC
  0
SECTION
  2
BLOCKS
  0
BLOCK
  8
0
  2
$MODEL_SPACE
 70
     0
 10
0.0
 20
0.0
 30
0.0
  3
$MODEL_SPACE
  1

  0
ENDBLK
  5
175D
  8
0
  0
BLOCK
 67
     1
  8
0
  2
$PAPER_SPACE
 70
     0
 10
0.0
 20
0.0
 30
0.0
  3
$PAPER_SPACE
  1

  0
ENDBLK
  5
1759
 67
     1
  8
0
  0
ENDSEC
  0
SECTION
  2
ENTITIES
  0
LINE
  5
2DF2
  8
0
 10
-1.5
 20
5.0
 30
0.0
 11
-30.5
 21
5.0
 31
0.0
  0
LINE
  5
2DF3
  8
0
 10
-1.5
 20
-5.0
 30
0.0
 11
-30.5
 21
-5.0
 31
0.0
  0
LINE
  5
2DF4
  8
MITTELLI
 10
213.24499314732941
 20
0.0
 30
0.0
 11
-29.66202017965179
 21
0.0
 31
0.0
  0
LINE
  5
2DF5
  8
0
 10
-30.5
 20
5.0
 30
0.0
 11
-31.5
 21
4.0
 31
0.0
  0
LINE
  5
2DF6
  8
0
 10
-30.5
 20
5.0
 30
0.0
 11
-30.5
 21
-5.0
 31
0.0
  0
LINE
  5
2DF7
  8
0
 10
-30.5
 20
-5.0
 30
0.0
 11
-31.5
 21
-4.0
 31
0.0
  0
LINE
  5
2DF8
  8
0
 10
-31.5
 20
4.0
 30
0.0
 11
-31.5
 21
-4.0
 31
0.0
  0
LINE
  5
2DF9
  8
0
 10
162.19999999999979
 20
42.999999999999929
 30
0.0
 11
162.19999999999979
 21
-45.0
 31
0.0
  0
LINE
  5
2DFA
  8
0
 10
191.6999999999999
 20
42.999999999999929
 30
0.0
 11
191.6999999999999
 21
-45.0
 31
0.0
  0
LINE
  5
2DFB
  8
0
 10
194.6999999999999
 20
43.000000000000057
 30
0.0
 11
194.6999999999999
 21
-43.000000000000057
 31
0.0
  0
LINE
  5
2DFC
  8
0
 10
117.1999999999997
 20
42.999999999999929
 30
0.0
 11
117.1999999999997
 21
-43.0
 31
0.0
  0
LINE
  5
2DFD
  8
0
 10
120.1999999999997
 20
42.999999999999929
 30
0.0
 11
120.1999999999997
 21
-43.0
 31
0.0
  0
LINE
  5
2DFE
  8
0
 10
5.6999999999998172
 20
42.999999999999929
 30
0.0
 11
5.6999999999998172
 21
-43.0
 31
0.0
  0
LINE
  5
2DFF
  8
0
 10
0.0
 20
42.999999999999929
 30
0.0
 11
0.0
 21
-42.999999999999929
 31
0.0
  0
LINE
  5
2E00
  8
0
 10
-1.5
 20
36.5
 30
0.0
 11
-1.5
 21
-36.5
 31
0.0
  0
LINE
  5
2E01
  8
0
 10
162.19999999999979
 20
-43.0
 30
0.0
 11
0.0
 21
-42.999999999999929
 31
0.0
  0
TEXT
  5
2E02
  8
0
 10
8.5327792315961233
 20
-38.719024203175287
 30
0.0
 40
3.2000000000000002
  1
SM 87.3.18 M BE50
  7
SIMPLEX
  0
LINE
  5
2E03
  8
0
 10
-1.5
 20
-36.5
 30
0.0
 11
0.0
 21
-36.5
 31
0.0
  0
LINE
  5
2E29
  8
0
 10
194.6999999999999
 20
-43.000000000000057
 30
0.0
 11
191.6999999999999
 21
-43.000000000000057
 31
0.0
  0
LINE
  5
2E2A
  8
0
 10
196.72994614536381
 20
-35.621796768721829
 30
0.0
 11
194.6999999999999
 21
-35.499999999999957
 31
0.0
  0
LINE
  5
2E2B
  8
0
 10
197.1999999999999
 20
-37.5
 30
0.0
 11
196.1999999999999
 21
-37.5
 31
0.0
  0
LINE
  5
2E2C
  8
0
 10
197.1999999999999
 20
-38.5
 30
0.0
 11
196.1999999999999
 21
-38.5
 31
0.0
  0
LINE
  5
2E2D
  8
0
 10
196.72994614536381
 20
-40.37820323127815
 30
0.0
 11
194.6999999999999
 21
-40.499999999999993
 31
0.0
  0
LINE
  5
2E2E
  8
0
 10
196.1999999999999
 20
-38.5
 30
0.0
 11
196.1999999999999
 21
-37.5
 31
0.0
  0
ARC
  5
2E2F
  8
0
 10
196.6999999999999
 20
-39.879100808545267
 30
0.0
 40
0.5
 50
273.43363036244961
 51
0.0
  0
LINE
  5
2E30
  8
0
 10
197.1999999999999
 20
-36.120899191454697
 30
0.0
 11
197.1999999999999
 21
-37.499999999999957
 31
0.0
  0
ARC
  5
2E31
  8
0
 10
196.6999999999999
 20
-36.120899191454697
 30
0.0
 40
0.5
 50
0.0
 51
86.566369637550437
  0
LINE
  5
2E32
  8
0
 10
197.1999999999999
 20
-39.879100808545267
 30
0.0
 11
197.1999999999999
 21
-38.5
 31
0.0
  0
LINE
  5
2E36
  8
0
 10
194.6999999999999
 20
43.000000000000057
 30
0.0
 11
0.0
 21
42.999999999999929
 31
0.0
  0
LINE
  5
2E37
  8
0
 10
-1.5
 20
36.5
 30
0.0
 11
0.0
 21
36.5
 31
0.0
  0
LINE
  5
2E38
  8
0
 10
196.72994614536381
 20
40.37820323127815
 30
0.0
 11
194.6999999999999
 21
40.499999999999993
 31
0.0
  0
LINE
  5
2E39
  8
0
 10
197.1999999999999
 20
38.5
 30
0.0
 11
196.1999999999999
 21
38.5
 31
0.0
  0
LINE
  5
2E3A
  8
0
 10
197.1999999999999
 20
37.5
 30
0.0
 11
196.1999999999999
 21
37.5
 31
0.0
  0
LINE
  5
2E3B
  8
0
 10
196.72994614536381
 20
35.621796768721829
 30
0.0
 11
194.6999999999999
 21
35.499999999999957
 31
0.0
  0
LINE
  5
2E3C
  8
0
 10
196.1999999999999
 20
38.5
 30
0.0
 11
196.1999999999999
 21
37.5
 31
0.0
  0
LINE
  5
2E3D
  8
0
 10
197.1999999999999
 20
39.879100808545267
 30
0.0
 11
197.1999999999999
 21
38.5
 31
0.0
  0
ARC
  5
2E3E
  8
0
 10
196.6999999999999
 20
36.120899191454697
 30
0.0
 40
0.5
 50
273.43363036244961
 51
0.0
  0
LINE
  5
2E3F
  8
0
 10
197.1999999999999
 20
36.120899191454697
 30
0.0
 11
197.1999999999999
 21
37.499999999999957
 31
0.0
  0
ARC
  5
2E40
  8
0
 10
196.6999999999999
 20
39.879100808545267
 30
0.0
 40
0.5
 50
0.0
 51
86.566369637550437
  0
LINE
  5
2EFD
  8
0
 10
187.9499999999999
 20
-57.941176470588182
 30
0.0
 11
165.9499999999999
 21
-57.941176470588182
 31
0.0
  0
LINE
  5
2EFE
  8
0
 10
187.9499999999999
 20
-61.176470588235247
 30
0.0
 11
165.9499999999999
 21
-61.176470588235247
 31
0.0
  0
LINE
  5
2EFF
  8
0
 10
185.19635348797161
 20
-64.411764705882291
 30
0.0
 11
182.44270697594459
 21
-64.411764705882291
 31
0.0
  0
ARC
  5
2F00
  8
0
 10
185.19635348797161
 20
-60.430253638763219
 30
0.0
 40
3.9815110671192571
 50
226.24243683464499
 51
313.75756316535723
  0
LINE
  5
2F01
  8
0
 10
165.9499999999999
 20
-57.941176470588182
 30
0.0
 11
165.9499999999999
 21
-44.999999999999943
 31
0.0
  0
ARC
  5
2F02
  8
0
 10
168.70364651202769
 20
-60.430253638764242
 30
0.0
 40
3.981511067118523
 50
226.24243683463371
 51
313.75756316536399
  0
LINE
  5
2F03
  8
0
 10
165.9499999999999
 20
-63.305990286021832
 30
0.0
 11
165.9499999999999
 21
-61.176470588235247
 31
0.0
  0
LINE
  5
2F04
  8
0
 10
182.44270697594459
 20
-64.411764705882291
 30
0.0
 11
171.45729302405519
 21
-64.411764705882291
 31
0.0
  0
ARC
  5
2F05
  8
0
 10
176.94999999999979
 20
-50.216931461690052
 30
0.0
 40
14.194833244192219
 50
247.2350767444407
 51
292.76492325555921
  0
LINE
  5
2F06
  8
0
 10
168.13054511163861
 20
-61.176470588235247
 30
0.0
 11
168.13054511163861
 21
-57.941176470588182
 31
0.0
  0
LINE
  5
2F07
  8
0
 10
171.45729302405519
 20
-64.411764705882291
 30
0.0
 11
168.7036465120276
 21
-64.411764705882291
 31
0.0
  0
LINE
  5
2F08
  8
0
 10
182.44270697594459
 20
-61.176470588235247
 30
0.0
 11
182.44270697594459
 21
-63.305990286022279
 31
0.0
  0
LINE
  5
2F09
  8
0
 10
166.51983287821611
 20
-45.0
 30
0.0
 11
162.1999999999999
 21
-45.0
 31
0.0
  0
LINE
  5
2F0A
  8
0
 10
166.5176527108537
 20
-43.000000000000007
 30
0.0
 11
164.78148316583949
 21
-43.0
 31
0.0
  0
LINE
  5
2FA2
  8
0
 10
187.9499999999999
 20
-44.999999999999943
 30
0.0
 11
187.9499999999999
 21
-57.941176470588182
 31
0.0
  0
LINE
  5
2FA3
  8
0
 10
185.76945488836111
 20
-61.176470588235247
 30
0.0
 11
185.76945488836111
 21
-57.941176470588182
 31
0.0
  0
LINE
  5
2FA4
  8
0
 10
187.9499999999999
 20
-63.305990286022563
 30
0.0
 11
187.9499999999999
 21
-61.176470588235247
 31
0.0
  0
LINE
  5
2FA8
  8
0
 10
187.45780038807359
 20
-43.000000000000007
 30
0.0
 11
189.11851683416029
 21
-43.0
 31
0.0
  0
LINE
  5
2FA9
  8
0
 10
191.6999999999999
 20
-45.0
 30
0.0
 11
187.45562014642459
 21
-45.0
 31
0.0
  0
LINE
  5
3024
  8
0
 10
176.9877265494637
 20
-43.948394907271748
 30
0.0
 11
176.9877265494637
 21
-47.658817774852942
 31
0.0
  0
LINE
  5
3025
  8
0
 10
183.22229479774469
 20
-44.852432442832317
 30
0.0
 11
183.22229479774469
 21
-48.562855310413468
 31
0.0
  0
LINE
  5
3026
  8
0
 10
186.19970912454141
 20
-50.697608303407172
 30
0.0
 11
186.1997091245392
 21
-46.987185435828813
 31
0.0
  0
LINE
  5
3027
  8
0
 10
167.77574397438849
 20
-50.6976083034087
 30
0.0
 11
167.77574397438821
 21
-46.987185435828813
 31
0.0
  0
LINE
  5
3028
  8
0
 10
170.75315830118279
 20
-44.852432442832317
 30
0.0
 11
170.75315830118279
 21
-48.562855310413468
 31
0.0
  0
ARC
  5
3029
  8
0
 10
176.9877265494637
 20
-43.225102381545113
 30
0.0
 40
8.6696087345522432
 50
245.3219483027552
 51
294.6780516972446
  0
ARC
  5
302A
  8
0
 10
176.9877265494637
 20
-58.147022374327193
 30
0.0
 40
8.5330334904247067
 50
65.122103603562763
 51
114.87789639643719
  0
LINE
  5
302B
  8
0
 10
176.9877265494616
 20
-53.736398831964173
 30
0.0
 11
170.75315830118049
 21
-52.832361296403647
 31
0.0
  0
LINE
  5
302C
  8
0
 10
176.9877265494616
 20
-47.65881777485324
 30
0.0
 11
170.75315830118049
 21
-48.562855310413809
 31
0.0
  0
LINE
  5
3035
  8
0
 10
170.75315830118049
 20
-48.562855310413809
 30
0.0
 11
167.7757439743861
 21
-50.697608303410227
 31
0.0
  0
LINE
  5
3036
  8
0
 10
170.75315830118021
 20
-52.832361296406717
 30
0.0
 11
167.7757439743861
 21
-50.697608303410227
 31
0.0
  0
ARC
  5
3038
  8
0
 10
173.624315737486
 20
-50.764735127133171
 30
0.0
 40
0.4243268062755158
 50
122.23224679872889
 51
232.8392969757243
  0
LINE
  5
3039
  8
0
 10
183.222294797747
 20
-52.832361296403647
 30
0.0
 11
186.19970912454141
 21
-50.697608303407172
 31
0.0
  0
LINE
  5
303A
  8
0
 10
183.222294797747
 20
-48.562855310413809
 30
0.0
 11
186.19970912454141
 21
-50.697608303410227
 31
0.0
  0
LINE
  5
3040
  8
0
 10
176.9877265494658
 20
-53.736398831964173
 30
0.0
 11
183.222294797747
 21
-52.832361296403647
 31
0.0
  0
LINE
  5
3041
  8
0
 10
176.9877265494658
 20
-47.65881777485324
 30
0.0
 11
183.222294797747
 21
-48.562855310413809
 31
0.0
  0
ARC
  5
3042
  8
0
 10
180.3511373614414
 20
-50.764735127133171
 30
0.0
 40
0.4243268062755158
 50
307.16070302427562
 51
57.767753201270999
  0
ARC
  5
3045
  8
0
 10
177.09697997255199
 20
-57.160859343328937
 30
0.0
 40
14.93141625830204
 50
56.894423584626963
 51
123.1055764153712
  0
ARC
  5
3046
  8
0
 10
176.9877265494639
 20
-57.192137778978299
 30
0.0
 40
17.005580066645241
 50
54.200970993750452
 51
125.7990290062495
  0
LINE
  5
3047
  8
0
 10
176.9877265494637
 20
-43.948394907271748
 30
0.0
 11
170.75315830118279
 21
-44.852432442832317
 31
0.0
  0
ARC
  5
3048
  8
0
 10
176.98772654946359
 20
-40.650378869081948
 30
0.0
 40
12.60815275542957
 50
33.857998802880211
 51
146.14200119711711
  0
LINE
  5
3049
  8
0
 10
166.5176527108537
 20
-44.841823036288581
 30
0.0
 11
166.5176527108537
 21
-33.625916632134178
 31
0.0
  0
LINE
  5
304A
  8
0
 10
166.5176527108537
 20
-44.841823036288659
 30
0.0
 11
166.5176527108537
 21
-33.62591663213427
 31
0.0
  0
ARC
  5
304B
  8
0
 10
168.8969199377442
 20
-44.888132888009523
 30
0.0
 40
2.3797178696897441
 50
141.27305377249331
 51
241.89179587316031
  0
LINE
  5
304C
  8
0
 10
168.9416869162562
 20
-46.151225132146237
 30
0.0
 11
168.9416869162562
 21
-44.653326147505659
 31
0.0
  0
LINE
  5
304D
  8
0
 10
170.75315830118279
 20
-44.852432442832317
 30
0.0
 11
167.77574397438821
 21
-46.987185435828813
 31
0.0
  0
LINE
  5
304E
  8
0
 10
187.45780038807359
 20
-33.625916632134569
 30
0.0
 11
187.45780038807359
 21
-44.653326147505652
 31
0.0
  0
LINE
  5
304F
  8
0
 10
187.45780038807379
 20
-33.625916632134661
 30
0.0
 11
187.45780038807379
 21
-44.653326147505723
 31
0.0
  0
LINE
  5
3050
  8
0
 10
183.22229479774469
 20
-44.852432442832317
 30
0.0
 11
186.1997091245392
 21
-46.987185435828813
 31
0.0
  0
LINE
  5
3051
  8
0
 10
176.9877265494637
 20
-43.948394907271748
 30
0.0
 11
183.22229479774469
 21
-44.852432442832317
 31
0.0
  0
LINE
  5
3052
  8
0
 10
185.25227302884801
 20
-46.151225132146237
 30
0.0
 11
185.25227302884801
 21
-44.653326147505659
 31
0.0
  0
ARC
  5
3053
  8
0
 10
185.07853295310099
 20
-44.888132845362662
 30
0.0
 40
2.3797180053420761
 50
298.10820806217282
 51
38.726942292199382
  0
ENDSEC
  0
EOF
