  0
SECTION
  2
HEADER
  9
$ACADVER
  1
AC1009
  9
$INSBASE
 10
0.0
 20
0.0
 30
0.0
  9
$EXTMIN
 10
-35.59396798527245
 20
-58.185299694969331
 30
-0.0000000000000024
  9
$EXTMAX
 10
223.74023158627571
 20
43.019124157866258
 30
0.0000000000000131
  9
$LIMMIN
 10
0.0
 20
0.0
  9
$LIMMAX
 10
410.0
 20
287.0
  9
$ORTHOMODE
 70
     1
  9
$REGENMODE
 70
     1
  9
$FILLMODE
 70
     1
  9
$QTEXTMODE
 70
     0
  9
$MIRRTEXT
 70
     1
  9
$DRAGMODE
 70
     2
  9
$LTSCALE
 40
25.0
  9
$OSMODE
 70
    39
  9
$ATTMODE
 70
     1
  9
$TEXTSIZE
 40
5.0
  9
$TRACEWID
 40
0.6
  9
$TEXTSTYLE
  7
TEXT50
  9
$CLAYER
  8
0
  9
$CELTYPE
  6
BYLAYER
  9
$CECOLOR
 62
   256
  9
$DIMSCALE
 40
1.0
  9
$DIMASZ
 40
3.5
  9
$DIMEXO
 40
0.1
  9
$DIMDLI
 40
7.0
  9
$DIMRND
 40
0.0
  9
$DIMDLE
 40
0.0
  9
$DIMEXE
 40
1.8
  9
$DIMTP
 40
0.0
  9
$DIMTM
 40
0.0
  9
$DIMTXT
 40
3.5
  9
$DIMCEN
 40
1.5
  9
$DIMTSZ
 40
0.0
  9
$DIMTOL
 70
     0
  9
$DIMLIM
 70
     0
  9
$DIMTIH
 70
     0
  9
$DIMTOH
 70
     0
  9
$DIMSE1
 70
     0
  9
$DIMSE2
 70
     0
  9
$DIMTAD
 70
     1
  9
$DIMZIN
 70
     0
  9
$DIMBLK
  1

  9
$DIMASO
 70
     0
  9
$DIMSHO
 70
     1
  9
$DIMPOST
  1

  9
$DIMAPOST
  1

  9
$DIMALT
 70
     0
  9
$DIMALTD
 70
     2
  9
$DIMALTF
 40
25.399999999999999
  9
$DIMLFAC
 40
1.0
  9
$DIMTOFL
 70
     0
  9
$DIMTVP
 40
0.0
  9
$DIMTIX
 70
     0
  9
$DIMSOXD
 70
     0
  9
$DIMSAH
 70
     0
  9
$DIMBLK1
  1

  9
$DIMBLK2
  1

  9
$DIMSTYLE
  2
STANDARD
  9
$DIMCLRD
 70
     0
  9
$DIMCLRE
 70
     0
  9
$DIMCLRT
 70
     0
  9
$DIMTFAC
 40
1.0
  9
$DIMGAP
 40
0.09
  9
$LUNITS
 70
     2
  9
$LUPREC
 70
     1
  9
$SKETCHINC
 40
0.1
  9
$FILLETRAD
 40
0.0
  9
$AUNITS
 70
     0
  9
$AUPREC
 70
     0
  9
$MENU
  1
acad
  9
$ELEVATION
 40
0.0
  9
$PELEVATION
 40
0.0
  9
$THICKNESS
 40
0.0
  9
$LIMCHECK
 70
     0
  9
$BLIPMODE
 70
     0
  9
$CHAMFERA
 40
1.0
  9
$CHAMFERB
 40
1.0
  9
$SKPOLY
 70
     0
  9
$TDCREATE
 40
2449016.4831520831
  9
$TDUPDATE
 40
2452677.7464213069
  9
$TDINDWG
 40
0.1370953935
  9
$TDUSRTIMER
 40
0.1370950463
  9
$USRTIMER
 70
     1
  9
$ANGBASE
 50
0.0
  9
$ANGDIR
 70
     0
  9
$PDMODE
 70
     0
  9
$PDSIZE
 40
0.0
  9
$PLINEWID
 40
0.0
  9
$COORDS
 70
     0
  9
$SPLFRAME
 70
     0
  9
$SPLINETYPE
 70
     6
  9
$SPLINESEGS
 70
     8
  9
$ATTDIA
 70
     0
  9
$ATTREQ
 70
     1
  9
$HANDLING
 70
  4097
  9
$HANDSEED
  5
31D9
  9
$SURFTAB1
 70
     6
  9
$SURFTAB2
 70
     6
  9
$SURFTYPE
 70
     6
  9
$SURFU
 70
     6
  9
$SURFV
 70
     6
  9
$UCSNAME
  2

  9
$UCSORG
 10
0.0
 20
0.0
 30
0.0
  9
$UCSXDIR
 10
1.0
 20
0.0
 30
0.0
  9
$UCSYDIR
 10
0.0
 20
1.0
 30
0.0
  9
$PUCSNAME
  2

  9
$PUCSORG
 10
0.0
 20
0.0
 30
0.0
  9
$PUCSXDIR
 10
1.0
 20
0.0
 30
0.0
  9
$PUCSYDIR
 10
0.0
 20
1.0
 30
0.0
  9
$USERI1
 70
     0
  9
$USERI2
 70
     0
  9
$USERI3
 70
     0
  9
$USERI4
 70
     0
  9
$USERI5
 70
     0
  9
$USERR1
 40
0.0
  9
$USERR2
 40
0.0
  9
$USERR3
 40
0.0
  9
$USERR4
 40
0.0
  9
$USERR5
 40
0.0
  9
$WORLDVIEW
 70
     1
  9
$SHADEDGE
 70
     3
  9
$SHADEDIF
 70
    70
  9
$TILEMODE
 70
     1
  9
$MAXACTVP
 70
    48
  9
$PLIMCHECK
 70
     0
  9
$PEXTMIN
 10
1.0000000000000000E+020
 20
1.0000000000000000E+020
 30
1.0000000000000000E+020
  9
$PEXTMAX
 10
-1.0000000000000000E+020
 20
-1.0000000000000000E+020
 30
-1.0000000000000000E+020
  9
$PLIMMIN
 10
0.0
 20
0.0
  9
$PLIMMAX
 10
12.0
 20
9.0
  9
$UNITMODE
 70
     0
  9
$VISRETAIN
 70
     1
  9
$PLINEGEN
 70
     0
  9
$PSLTSCALE
 70
     0
  0
ENDSEC
  0
SECTION
  2
TABLES
  0
TABLE
  2
VPORT
 70
     3
  0
VPORT
  2
*ACTIVE
 70
     0
 10
0.0
 20
0.0
 11
1.0
 21
1.0
 12
94.073131800501656
 22
-7.5830877685515361
 13
0.0
 23
0.0
 14
0.5
 24
0.5
 15
10.0
 25
10.0
 16
0.0
 26
0.0
 36
1.0
 17
0.0
 27
0.0
 37
0.0
 40
122.9830084298211
 41
2.126099706744867
 42
50.0
 43
0.0
 44
0.0
 50
0.0
 51
0.0
 71
     0
 72
   100
 73
     1
 74
     0
 75
     0
 76
     0
 77
     0
 78
     0
  0
ENDTAB
  0
TABLE
  2
LTYPE
 70
     2
  0
LTYPE
  2
CONTINUOUS
 70
     0
  3
Solid line
 72
    65
 73
     0
 40
0.0
  0
LTYPE
  2
MITTKLEIN
 70
     0
  3
__ . __ . ___ 
 72
    65
 73
     4
 40
0.45
 49
0.25
 49
-0.1
 49
0.0
 49
-0.1
  0
ENDTAB
  0
TABLE
  2
LAYER
 70
     2
  0
LAYER
  2
0
 70
     0
 62
     7
  6
CONTINUOUS
  0
LAYER
  2
MITTELLI
 70
     0
 62
     1
  6
MITTKLEIN
  0
ENDTAB
  0
TABLE
  2
STYLE
 70
     4
  0
STYLE
  2
STANDARD
 70
     0
 40
0.0
 41
1.0
 50
0.0
 71
     0
 42
0.2
  3
txt
  4

  0
STYLE
  2
TEXT50
 70
     0
 40
5.0
 41
1.0
 50
0.0
 71
     0
 42
5.0
  3
8simplex
  4

  0
STYLE
  2
TXT
 70
     0
 40
0.0
 41
1.0
 50
0.0
 71
     0
 42
2.5
  3
8txt
  4

  0
STYLE
  2
SIMPLEX
 70
     0
 40
0.0
 41
0.8
 50
0.0
 71
     0
 42
8.0
  3
simplex
  4

  0
ENDTAB
  0
TABLE
  2
VIEW
 70
     0
  0
ENDTAB
  0
TABLE
  2
UCS
 70
     0
  0
ENDTAB
  0
TABLE
  2
APPID
 70
     1
  0
APPID
  2
ACAD
 70
     0
  0
ENDTAB
  0
TABLE
  2
DIMSTYLE
 70
     1
  0
DIMSTYLE
  2
STANDARD
 70
     0
  3

  4

  5

  6

  7

 40
1.0
 41
0.18
 42
0.0625
 43
0.38
 44
0.18
 45
0.0
 46
0.0
 47
0.0
 48
0.0
140
0.18
141
0.09
142
0.0
143
25.399999999999999
144
1.0
145
0.0
146
1.0
147
0.09
 71
     0
 72
     0
 73
     1
 74
     1
 75
     0
 76
     0
 77
     0
 78
     0
170
     0
171
     2
172
     0
173
     0
174
     0
175
     0
176
     0
177
     0
178
     0
  0
ENDTAB
  0
ENDSEC
  0
SECTION
  2
BLOCKS
  0
BLOCK
  8
0
  2
$MODEL_SPACE
 70
     0
 10
0.0
 20
0.0
 30
0.0
  3
$MODEL_SPACE
  1

  0
ENDBLK
  5
178C
  8
0
  0
BLOCK
 67
     1
  8
0
  2
$PAPER_SPACE
 70
     0
 10
0.0
 20
0.0
 30
0.0
  3
$PAPER_SPACE
  1

  0
ENDBLK
  5
1788
 67
     1
  8
0
  0
ENDSEC
  0
SECTION
  2
ENTITIES
  0
LINE
  5
179D
  8
0
 10
189.01765271085361
 20
-43.000000000000057
 30
0.0
 11
0.0
 21
-42.999999999999929
 31
0.0
  0
LINE
  5
179E
  8
MITTELLI
 10
223.70939902040891
 20
0.0000000000000284
 30
0.0
 11
-35.582868906673752
 21
0.0000000000000007
 31
0.0
  0
LINE
  5
179F
  8
0
 10
217.1999999999999
 20
43.000000000000099
 30
0.0
 11
0.0
 21
42.999999999999929
 31
0.0
  0
LINE
  5
17A0
  8
0
 10
120.1999999999999
 20
42.999999999999929
 30
0.0
 11
120.1999999999999
 21
-43.0
 31
0.0
  0
LINE
  5
17A1
  8
0
 10
117.1999999999999
 20
42.999999999999929
 30
0.0
 11
117.1999999999999
 21
-43.0
 31
0.0
  0
LINE
  5
17A2
  8
0
 10
5.69999999999993
 20
42.999999999999929
 30
0.0
 11
5.69999999999993
 21
-43.0
 31
0.0
  0
LINE
  5
17A3
  8
0
 10
0.0
 20
42.999999999999929
 30
0.0
 11
0.0
 21
-42.999999999999929
 31
0.0
  0
LINE
  5
17A4
  8
0
 10
-1.5
 20
36.5
 30
0.0
 11
-1.5
 21
-36.5
 31
0.0
  0
LINE
  5
17A5
  8
0
 10
-1.5
 20
5.0
 30
0.0
 11
-30.5
 21
5.0
 31
0.0
  0
LINE
  5
17A6
  8
0
 10
-1.5
 20
-5.0
 30
0.0
 11
-30.5
 21
-5.0
 31
0.0
  0
LINE
  5
17A7
  8
0
 10
-30.5
 20
5.0
 30
0.0
 11
-30.5
 21
-5.0
 31
0.0
  0
LINE
  5
17A8
  8
0
 10
-30.5
 20
-5.0
 30
0.0
 11
-31.5
 21
-4.0
 31
0.0
  0
LINE
  5
17A9
  8
0
 10
-30.5
 20
5.0
 30
0.0
 11
-31.50000000000011
 21
4.0
 31
0.0
  0
LINE
  5
17AA
  8
0
 10
-31.50000000000011
 20
4.0
 30
0.0
 11
-31.5
 21
-4.0
 31
0.0
  0
TEXT
  5
17AB
  8
0
 10
15.782310685720679
 20
-38.719024203175287
 30
0.0
 40
3.2000000000000002
  1
SM 87.3.18 MBH200
  7
SIMPLEX
  0
LINE
  5
17AC
  8
0
 10
-1.5
 20
-36.5
 30
0.0
 11
0.0
 21
-36.5
 31
0.0
  0
LINE
  5
17AD
  8
0
 10
-1.5
 20
36.5
 30
0.0
 11
0.0
 21
36.5
 31
0.0
  0
LINE
  5
2E32
  8
0
 10
214.1999999999999
 20
42.999999999999929
 30
0.0
 11
214.1999999999999
 21
-43.0
 31
0.0
  0
LINE
  5
2E33
  8
0
 10
166.1999999999999
 20
42.999999999999929
 30
0.0
 11
166.1999999999999
 21
-43.0
 31
0.0
  0
LINE
  5
2E37
  8
0
 10
217.1999999999999
 20
43.000000000000099
 30
0.0
 11
217.1999999999999
 21
-43.000000000000057
 31
0.0
  0
LINE
  5
2E65
  8
0
 10
219.22994614536381
 20
35.621796768721829
 30
0.0
 11
217.1999999999999
 21
35.499999999999957
 31
0.0
  0
LINE
  5
2E66
  8
0
 10
219.22994614536381
 20
40.37820323127815
 30
0.0
 11
217.1999999999999
 21
40.499999999999993
 31
0.0
  0
ARC
  5
2E67
  8
0
 10
219.1999999999999
 20
39.879100808545267
 30
0.0
 40
0.5
 50
0.0
 51
86.566369637550437
  0
LINE
  5
2E68
  8
0
 10
219.6999999999999
 20
36.120899191454697
 30
0.0
 11
219.6999999999999
 21
37.499999999999957
 31
0.0
  0
ARC
  5
2E69
  8
0
 10
219.1999999999999
 20
36.120899191454697
 30
0.0
 40
0.5
 50
273.43363036244961
 51
0.0
  0
LINE
  5
2E6A
  8
0
 10
219.6999999999999
 20
39.879100808545267
 30
0.0
 11
219.6999999999999
 21
38.5
 31
0.0
  0
LINE
  5
2E6B
  8
0
 10
218.69999999999979
 20
38.5
 30
0.0
 11
218.69999999999979
 21
37.5
 31
0.0
  0
LINE
  5
2E6C
  8
0
 10
219.6999999999999
 20
37.5
 30
0.0
 11
218.69999999999979
 21
37.5
 31
0.0
  0
LINE
  5
2E6D
  8
0
 10
219.6999999999999
 20
38.5
 30
0.0
 11
218.69999999999979
 21
38.5
 31
0.0
  0
LINE
  5
3168
  8
0
 10
217.1999999999999
 20
-43.000000000000057
 30
0.0
 11
214.2000000000001
 21
-43.000000000000057
 31
0.0
  0
LINE
  5
3169
  8
0
 10
217.1999999999999
 20
-43.000000000000057
 30
0.0
 11
209.95780038807371
 21
-43.000000000000057
 31
0.0
  0
LINE
  5
316A
  8
0
 10
199.48772654946379
 20
-43.948394907271812
 30
0.0
 11
199.48772654946379
 21
-47.658817774852999
 31
0.0
  0
LINE
  5
316B
  8
0
 10
205.72229479774481
 20
-44.852432442832381
 30
0.0
 11
205.72229479774481
 21
-48.562855310413532
 31
0.0
  0
LINE
  5
316C
  8
0
 10
208.6997091245415
 20
-50.697608303407222
 30
0.0
 11
208.69970912453931
 21
-46.98718543582887
 31
0.0
  0
LINE
  5
316D
  8
0
 10
190.2757439743886
 20
-50.697608303408749
 30
0.0
 11
190.27574397438829
 21
-46.98718543582887
 31
0.0
  0
LINE
  5
316E
  8
0
 10
193.25315830118291
 20
-44.852432442832381
 30
0.0
 11
193.25315830118291
 21
-48.562855310413532
 31
0.0
  0
ARC
  5
316F
  8
0
 10
199.48772654946379
 20
-43.225102381545163
 30
0.0
 40
8.6696087345522432
 50
245.3219483027552
 51
294.6780516972446
  0
ARC
  5
3170
  8
0
 10
199.48772654946379
 20
-58.14702237432725
 30
0.0
 40
8.5330334904247067
 50
65.122103603562763
 51
114.87789639643719
  0
LINE
  5
3171
  8
0
 10
199.48772654946171
 20
-53.736398831964223
 30
0.0
 11
193.25315830118069
 21
-52.832361296403711
 31
0.0
  0
LINE
  5
3172
  8
0
 10
199.48772654946171
 20
-47.65881777485329
 30
0.0
 11
193.25315830118069
 21
-48.562855310413859
 31
0.0
  0
LINE
  5
3173
  8
0
 10
203.7505713773829
 20
-58.169502786031323
 30
0.0
 11
195.16591820062189
 21
-58.169502786031323
 31
0.0
  0
ARC
  5
3174
  8
0
 10
199.45824478900241
 20
-47.076819266136162
 30
0.0
 40
11.092683519895131
 50
247.2350767444407
 51
292.76492325555921
  0
LINE
  5
3175
  8
0
 10
208.05429636775361
 20
-55.641252321692782
 30
0.0
 11
190.86219321025141
 21
-55.641252321692782
 31
0.0
  0
LINE
  5
3176
  8
0
 10
192.56620032383691
 20
-55.641252321692782
 30
0.0
 11
192.56620032383691
 21
-53.113001857354213
 31
0.0
  0
ARC
  5
3177
  8
0
 10
193.01405570543679
 20
-55.05811419563905
 30
0.0
 40
3.1113885903926328
 50
226.24243683463359
 51
313.75756316536399
  0
LINE
  5
3178
  8
0
 10
195.16591820062189
 20
-58.169502786031323
 30
0.0
 11
193.0140557054367
 21
-58.169502786031323
 31
0.0
  0
LINE
  5
3179
  8
0
 10
190.86219321025141
 20
-57.30538515443277
 30
0.0
 11
190.86219321025141
 21
-55.641252321692782
 31
0.0
  0
LINE
  5
317A
  8
0
 10
195.18855662443389
 20
-53.113001857354213
 30
0.0
 11
190.86219321025141
 21
-53.113001857354213
 31
0.0
  0
LINE
  5
317B
  8
0
 10
193.25315830118069
 20
-48.562855310413859
 30
0.0
 11
190.2757439743863
 21
-50.697608303410291
 31
0.0
  0
LINE
  5
317C
  8
0
 10
193.25315830118029
 20
-52.832361296406773
 30
0.0
 11
190.2757439743863
 21
-50.697608303410291
 31
0.0
  0
LINE
  5
317D
  8
0
 10
190.86219321025141
 20
-53.113001857354213
 30
0.0
 11
190.86219321025141
 21
-51.118081950704877
 31
0.0
  0
ARC
  5
317E
  8
0
 10
196.1243157374862
 20
-50.764735127133221
 30
0.0
 40
0.4243268062755158
 50
122.23224679872889
 51
232.8392969757243
  0
LINE
  5
317F
  8
0
 10
205.72229479774711
 20
-52.832361296403711
 30
0.0
 11
208.6997091245415
 21
-50.697608303407222
 31
0.0
  0
LINE
  5
3180
  8
0
 10
205.72229479774711
 20
-48.562855310413859
 30
0.0
 11
208.6997091245415
 21
-50.697608303410291
 31
0.0
  0
LINE
  5
3181
  8
0
 10
208.05429636775361
 20
-53.113001857354213
 30
0.0
 11
203.78689647449349
 21
-53.113001857354213
 31
0.0
  0
ARC
  5
3182
  8
0
 10
205.90243387256791
 20
-55.058114195638247
 30
0.0
 40
3.111388590393207
 50
226.24243683464491
 51
313.75756316535711
  0
LINE
  5
3183
  8
0
 10
206.3502892541681
 20
-55.641252321692782
 30
0.0
 11
206.3502892541681
 21
-53.113001857354213
 31
0.0
  0
LINE
  5
3184
  8
0
 10
203.7505713773829
 20
-55.641252321692782
 30
0.0
 11
203.7505713773829
 21
-57.305385154433097
 31
0.0
  0
LINE
  5
3185
  8
0
 10
205.90243387256791
 20
-58.169502786031323
 30
0.0
 11
203.7505713773829
 21
-58.169502786031323
 31
0.0
  0
LINE
  5
3186
  8
0
 10
199.487726549466
 20
-53.736398831964223
 30
0.0
 11
205.72229479774711
 21
-52.832361296403711
 31
0.0
  0
LINE
  5
3187
  8
0
 10
199.487726549466
 20
-47.65881777485329
 30
0.0
 11
205.72229479774711
 21
-48.562855310413859
 31
0.0
  0
ARC
  5
3188
  8
0
 10
202.8511373614416
 20
-50.764735127133221
 30
0.0
 40
0.4243268062755158
 50
307.16070302427562
 51
57.767753201270999
  0
LINE
  5
3189
  8
0
 10
208.05429636775361
 20
-57.305385154433338
 30
0.0
 11
208.05429636775361
 21
-55.641252321692782
 31
0.0
  0
LINE
  5
318A
  8
0
 10
208.05429636775361
 20
-51.160357744044973
 30
0.0
 11
208.05429636775361
 21
-53.113001857354213
 31
0.0
  0
ARC
  5
318B
  8
0
 10
199.59697997255211
 20
-57.160859343328987
 30
0.0
 40
14.93141625830204
 50
56.894423584626963
 51
123.1055764153712
  0
ARC
  5
318C
  8
0
 10
199.48772654946401
 20
-57.192137778978349
 30
0.0
 40
17.005580066645241
 50
54.200970993750452
 51
125.7990290062495
  0
LINE
  5
318D
  8
0
 10
199.48772654946379
 20
-43.948394907271812
 30
0.0
 11
193.25315830118291
 21
-44.852432442832381
 31
0.0
  0
ARC
  5
318E
  8
0
 10
199.48772654946359
 20
-40.650378869081997
 30
0.0
 40
12.60815275542957
 50
33.857998802880211
 51
146.14200119711711
  0
LINE
  5
318F
  8
0
 10
189.01765271085381
 20
-44.841823036288631
 30
0.0
 11
189.01765271085381
 21
-33.625916632134242
 31
0.0
  0
LINE
  5
3190
  8
0
 10
189.01765271085381
 20
-44.841823036288723
 30
0.0
 11
189.01765271085381
 21
-33.62591663213432
 31
0.0
  0
ARC
  5
3191
  8
0
 10
191.39691993774429
 20
-44.888132888009572
 30
0.0
 40
2.3797178696897441
 50
141.27305377249331
 51
241.89179587316031
  0
LINE
  5
3192
  8
0
 10
191.44168691625629
 20
-46.151225132146308
 30
0.0
 11
191.44168691625629
 21
-44.653326147505723
 31
0.0
  0
LINE
  5
3193
  8
0
 10
193.25315830118291
 20
-44.852432442832381
 30
0.0
 11
190.27574397438829
 21
-46.98718543582887
 31
0.0
  0
LINE
  5
3194
  8
0
 10
209.95780038807379
 20
-33.625916632134633
 30
0.0
 11
209.95780038807379
 21
-44.653326147505709
 31
0.0
  0
LINE
  5
3195
  8
0
 10
209.95780038807391
 20
-33.625916632134711
 30
0.0
 11
209.95780038807391
 21
-44.65332614750578
 31
0.0
  0
LINE
  5
3196
  8
0
 10
205.72229479774481
 20
-44.852432442832381
 30
0.0
 11
208.69970912453931
 21
-46.98718543582887
 31
0.0
  0
LINE
  5
3197
  8
0
 10
199.48772654946379
 20
-43.948394907271812
 30
0.0
 11
205.72229479774481
 21
-44.852432442832381
 31
0.0
  0
LINE
  5
3198
  8
0
 10
207.75227302884821
 20
-46.151225132146308
 30
0.0
 11
207.75227302884821
 21
-44.653326147505723
 31
0.0
  0
ARC
  5
3199
  8
0
 10
207.57853295310119
 20
-44.888132845362712
 30
0.0
 40
2.3797180053420761
 50
298.10820806217282
 51
38.726942292199382
  0
LINE
  5
319A
  8
0
 10
219.69999999999999
 20
-37.5
 30
0.0
 11
218.7000000000001
 21
-37.5
 31
0.0
  0
LINE
  5
319B
  8
0
 10
219.69999999999999
 20
-38.5
 30
0.0
 11
218.7000000000001
 21
-38.5
 31
0.0
  0
LINE
  5
319C
  8
0
 10
218.7000000000001
 20
-38.5
 30
0.0
 11
218.7000000000001
 21
-37.5
 31
0.0
  0
LINE
  5
319D
  8
0
 10
219.69999999999999
 20
-36.120899191454711
 30
0.0
 11
219.69999999999999
 21
-37.499999999999922
 31
0.0
  0
ARC
  5
319E
  8
0
 10
219.1999999999999
 20
-36.120899191454711
 30
0.0
 40
0.5
 50
0.0
 51
86.566369637550423
  0
LINE
  5
319F
  8
0
 10
219.69999999999999
 20
-39.879100808545267
 30
0.0
 11
219.69999999999999
 21
-38.5
 31
0.0
  0
LINE
  5
31A0
  8
0
 10
219.2299461453639
 20
-35.621796768721829
 30
0.0
 11
217.1999999999999
 21
-35.49999999999995
 31
0.0
  0
LINE
  5
31A1
  8
0
 10
219.2299461453639
 20
-40.378203231278157
 30
0.0
 11
217.1999999999999
 21
-40.499999999999993
 31
0.0
  0
ARC
  5
31A2
  8
0
 10
219.1999999999999
 20
-39.879100808545267
 30
0.0
 40
0.5
 50
273.43363036244961
 51
0.0
  0
ENDSEC
  0
EOF
