  0
SECTION
  2
HEADER
  9
$ACADVER
  1
AC1009
  9
$INSBASE
 10
0.0
 20
0.0
 30
0.0
  9
$EXTMIN
 10
-36.980595277489549
 20
-58.190568974686023
 30
-0.0000000000000022
  9
$EXTMAX
 10
255.71483886985641
 20
43.015399771336881
 30
0.0000000000000132
  9
$LIMMIN
 10
0.0
 20
0.0
  9
$LIMMAX
 10
410.0
 20
287.0
  9
$ORTHOMODE
 70
     1
  9
$REGENMODE
 70
     1
  9
$FILLMODE
 70
     1
  9
$QTEXTMODE
 70
     0
  9
$MIRRTEXT
 70
     1
  9
$DRAGMODE
 70
     2
  9
$LTSCALE
 40
25.0
  9
$OSMODE
 70
    39
  9
$ATTMODE
 70
     1
  9
$TEXTSIZE
 40
5.0
  9
$TRACEWID
 40
0.6
  9
$TEXTSTYLE
  7
TEXT50
  9
$CLAYER
  8
0
  9
$CELTYPE
  6
BYLAYER
  9
$CECOLOR
 62
   256
  9
$DIMSCALE
 40
1.0
  9
$DIMASZ
 40
3.5
  9
$DIMEXO
 40
0.1
  9
$DIMDLI
 40
7.0
  9
$DIMRND
 40
0.0
  9
$DIMDLE
 40
0.0
  9
$DIMEXE
 40
1.8
  9
$DIMTP
 40
0.0
  9
$DIMTM
 40
0.0
  9
$DIMTXT
 40
3.5
  9
$DIMCEN
 40
1.5
  9
$DIMTSZ
 40
0.0
  9
$DIMTOL
 70
     0
  9
$DIMLIM
 70
     0
  9
$DIMTIH
 70
     0
  9
$DIMTOH
 70
     0
  9
$DIMSE1
 70
     0
  9
$DIMSE2
 70
     0
  9
$DIMTAD
 70
     1
  9
$DIMZIN
 70
     0
  9
$DIMBLK
  1

  9
$DIMASO
 70
     0
  9
$DIMSHO
 70
     1
  9
$DIMPOST
  1

  9
$DIMAPOST
  1

  9
$DIMALT
 70
     0
  9
$DIMALTD
 70
     2
  9
$DIMALTF
 40
25.399999999999999
  9
$DIMLFAC
 40
1.0
  9
$DIMTOFL
 70
     0
  9
$DIMTVP
 40
0.0
  9
$DIMTIX
 70
     0
  9
$DIMSOXD
 70
     0
  9
$DIMSAH
 70
     0
  9
$DIMBLK1
  1

  9
$DIMBLK2
  1

  9
$DIMSTYLE
  2
STANDARD
  9
$DIMCLRD
 70
     0
  9
$DIMCLRE
 70
     0
  9
$DIMCLRT
 70
     0
  9
$DIMTFAC
 40
1.0
  9
$DIMGAP
 40
0.09
  9
$LUNITS
 70
     2
  9
$LUPREC
 70
     1
  9
$SKETCHINC
 40
0.1
  9
$FILLETRAD
 40
0.0
  9
$AUNITS
 70
     0
  9
$AUPREC
 70
     0
  9
$MENU
  1
acad
  9
$ELEVATION
 40
0.0
  9
$PELEVATION
 40
0.0
  9
$THICKNESS
 40
0.0
  9
$LIMCHECK
 70
     0
  9
$BLIPMODE
 70
     0
  9
$CHAMFERA
 40
1.0
  9
$CHAMFERB
 40
1.0
  9
$SKPOLY
 70
     0
  9
$TDCREATE
 40
2449016.4831520831
  9
$TDUPDATE
 40
2452677.7469324651
  9
$TDINDWG
 40
0.1382823032
  9
$TDUSRTIMER
 40
0.1382818403
  9
$USRTIMER
 70
     1
  9
$ANGBASE
 50
0.0
  9
$ANGDIR
 70
     0
  9
$PDMODE
 70
     0
  9
$PDSIZE
 40
0.0
  9
$PLINEWID
 40
0.0
  9
$COORDS
 70
     0
  9
$SPLFRAME
 70
     0
  9
$SPLINETYPE
 70
     6
  9
$SPLINESEGS
 70
     8
  9
$ATTDIA
 70
     0
  9
$ATTREQ
 70
     1
  9
$HANDLING
 70
  4097
  9
$HANDSEED
  5
334B
  9
$SURFTAB1
 70
     6
  9
$SURFTAB2
 70
     6
  9
$SURFTYPE
 70
     6
  9
$SURFU
 70
     6
  9
$SURFV
 70
     6
  9
$UCSNAME
  2

  9
$UCSORG
 10
0.0
 20
0.0
 30
0.0
  9
$UCSXDIR
 10
1.0
 20
0.0
 30
0.0
  9
$UCSYDIR
 10
0.0
 20
1.0
 30
0.0
  9
$PUCSNAME
  2

  9
$PUCSORG
 10
0.0
 20
0.0
 30
0.0
  9
$PUCSXDIR
 10
1.0
 20
0.0
 30
0.0
  9
$PUCSYDIR
 10
0.0
 20
1.0
 30
0.0
  9
$USERI1
 70
     0
  9
$USERI2
 70
     0
  9
$USERI3
 70
     0
  9
$USERI4
 70
     0
  9
$USERI5
 70
     0
  9
$USERR1
 40
0.0
  9
$USERR2
 40
0.0
  9
$USERR3
 40
0.0
  9
$USERR4
 40
0.0
  9
$USERR5
 40
0.0
  9
$WORLDVIEW
 70
     1
  9
$SHADEDGE
 70
     3
  9
$SHADEDIF
 70
    70
  9
$TILEMODE
 70
     1
  9
$MAXACTVP
 70
    48
  9
$PLIMCHECK
 70
     0
  9
$PEXTMIN
 10
1.0000000000000000E+020
 20
1.0000000000000000E+020
 30
1.0000000000000000E+020
  9
$PEXTMAX
 10
-1.0000000000000000E+020
 20
-1.0000000000000000E+020
 30
-1.0000000000000000E+020
  9
$PLIMMIN
 10
0.0
 20
0.0
  9
$PLIMMAX
 10
12.0
 20
9.0
  9
$UNITMODE
 70
     0
  9
$VISRETAIN
 70
     1
  9
$PLINEGEN
 70
     0
  9
$PSLTSCALE
 70
     0
  0
ENDSEC
  0
SECTION
  2
TABLES
  0
TABLE
  2
VPORT
 70
     3
  0
VPORT
  2
*ACTIVE
 70
     0
 10
0.0
 20
0.0
 11
1.0
 21
1.0
 12
109.3671217961834
 22
-7.5875846016745641
 13
0.0
 23
0.0
 14
0.5
 24
0.5
 15
10.0
 25
10.0
 16
0.0
 26
0.0
 36
1.0
 17
0.0
 27
0.0
 37
0.0
 40
138.803771753143
 41
2.126099706744867
 42
50.0
 43
0.0
 44
0.0
 50
0.0
 51
0.0
 71
     0
 72
   100
 73
     1
 74
     0
 75
     0
 76
     0
 77
     0
 78
     0
  0
ENDTAB
  0
TABLE
  2
LTYPE
 70
     2
  0
LTYPE
  2
CONTINUOUS
 70
     0
  3
Solid line
 72
    65
 73
     0
 40
0.0
  0
LTYPE
  2
MITTKLEIN
 70
     0
  3
__ . __ . ___ 
 72
    65
 73
     4
 40
0.45
 49
0.25
 49
-0.1
 49
0.0
 49
-0.1
  0
ENDTAB
  0
TABLE
  2
LAYER
 70
     2
  0
LAYER
  2
0
 70
     0
 62
     7
  6
CONTINUOUS
  0
LAYER
  2
MITTELLI
 70
     0
 62
     1
  6
MITTKLEIN
  0
ENDTAB
  0
TABLE
  2
STYLE
 70
     4
  0
STYLE
  2
STANDARD
 70
     0
 40
0.0
 41
1.0
 50
0.0
 71
     0
 42
0.2
  3
txt
  4

  0
STYLE
  2
TEXT50
 70
     0
 40
5.0
 41
1.0
 50
0.0
 71
     0
 42
5.0
  3
8simplex
  4

  0
STYLE
  2
TXT
 70
     0
 40
0.0
 41
1.0
 50
0.0
 71
     0
 42
2.5
  3
8txt
  4

  0
STYLE
  2
SIMPLEX
 70
     0
 40
0.0
 41
0.8
 50
0.0
 71
     0
 42
8.0
  3
simplex
  4

  0
ENDTAB
  0
TABLE
  2
VIEW
 70
     0
  0
ENDTAB
  0
TABLE
  2
UCS
 70
     0
  0
ENDTAB
  0
TABLE
  2
APPID
 70
     1
  0
APPID
  2
ACAD
 70
     0
  0
ENDTAB
  0
TABLE
  2
DIMSTYLE
 70
     1
  0
DIMSTYLE
  2
STANDARD
 70
     0
  3

  4

  5

  6

  7

 40
1.0
 41
0.18
 42
0.0625
 43
0.38
 44
0.18
 45
0.0
 46
0.0
 47
0.0
 48
0.0
140
0.18
141
0.09
142
0.0
143
25.399999999999999
144
1.0
145
0.0
146
1.0
147
0.09
 71
     0
 72
     0
 73
     1
 74
     1
 75
     0
 76
     0
 77
     0
 78
     0
170
     0
171
     2
172
     0
173
     0
174
     0
175
     0
176
     0
177
     0
178
     0
  0
ENDTAB
  0
ENDSEC
  0
SECTION
  2
BLOCKS
  0
BLOCK
  8
0
  2
$MODEL_SPACE
 70
     0
 10
0.0
 20
0.0
 30
0.0
  3
$MODEL_SPACE
  1

  0
ENDBLK
  5
31B1
  8
0
  0
BLOCK
 67
     1
  8
0
  2
$PAPER_SPACE
 70
     0
 10
0.0
 20
0.0
 30
0.0
  3
$PAPER_SPACE
  1

  0
ENDBLK
  5
31AD
 67
     1
  8
0
  0
ENDSEC
  0
SECTION
  2
ENTITIES
  0
LINE
  5
31C2
  8
0
 10
221.01765271085361
 20
-43.000000000000057
 30
0.0
 11
0.0
 21
-42.999999999999929
 31
0.0
  0
LINE
  5
31C3
  8
MITTELLI
 10
255.7093990204088
 20
0.0000000000000284
 30
0.0
 11
-36.977519802825782
 21
0.0000000000000005
 31
0.0
  0
LINE
  5
31C4
  8
0
 10
249.1999999999999
 20
43.000000000000092
 30
0.0
 11
0.0
 21
42.999999999999929
 31
0.0
  0
LINE
  5
31C5
  8
0
 10
152.1999999999999
 20
42.999999999999929
 30
0.0
 11
152.1999999999999
 21
-43.0
 31
0.0
  0
LINE
  5
31C6
  8
0
 10
149.1999999999999
 20
42.999999999999929
 30
0.0
 11
149.1999999999999
 21
-43.0
 31
0.0
  0
LINE
  5
31C7
  8
0
 10
5.69999999999993
 20
42.999999999999929
 30
0.0
 11
5.69999999999993
 21
-43.0
 31
0.0
  0
LINE
  5
31C8
  8
0
 10
0.0
 20
42.999999999999929
 30
0.0
 11
0.0
 21
-42.999999999999929
 31
0.0
  0
LINE
  5
31C9
  8
0
 10
-1.5
 20
36.5
 30
0.0
 11
-1.5
 21
-36.5
 31
0.0
  0
LINE
  5
31CA
  8
0
 10
-1.5
 20
5.0
 30
0.0
 11
-30.5
 21
5.0
 31
0.0
  0
LINE
  5
31CB
  8
0
 10
-1.5
 20
-5.0
 30
0.0
 11
-30.5
 21
-5.0
 31
0.0
  0
LINE
  5
31CC
  8
0
 10
-30.5
 20
5.0
 30
0.0
 11
-30.5
 21
-5.0
 31
0.0
  0
LINE
  5
31CD
  8
0
 10
-30.5
 20
-5.0
 30
0.0
 11
-31.5
 21
-4.0
 31
0.0
  0
LINE
  5
31CE
  8
0
 10
-30.5
 20
5.0
 30
0.0
 11
-31.50000000000011
 21
4.0
 31
0.0
  0
LINE
  5
31CF
  8
0
 10
-31.50000000000011
 20
4.0
 30
0.0
 11
-31.5
 21
-4.0
 31
0.0
  0
TEXT
  5
31D0
  8
0
 10
15.78231068572067
 20
-38.71902420317528
 30
0.0
 40
3.2000000000000002
  1
SM 87.4.18 MBH200
  7
SIMPLEX
  0
LINE
  5
31D1
  8
0
 10
-1.5
 20
-36.5
 30
0.0
 11
0.0
 21
-36.5
 31
0.0
  0
LINE
  5
31D2
  8
0
 10
-1.5
 20
36.5
 30
0.0
 11
0.0
 21
36.5
 31
0.0
  0
LINE
  5
31D3
  8
0
 10
246.1999999999999
 20
42.999999999999929
 30
0.0
 11
246.1999999999999
 21
-43.0
 31
0.0
  0
LINE
  5
31D4
  8
0
 10
198.1999999999999
 20
42.999999999999929
 30
0.0
 11
198.1999999999999
 21
-43.0
 31
0.0
  0
LINE
  5
31D6
  8
0
 10
249.1999999999999
 20
43.000000000000092
 30
0.0
 11
249.1999999999999
 21
-43.000000000000057
 31
0.0
  0
LINE
  5
31E1
  8
0
 10
251.22994614536381
 20
35.621796768721829
 30
0.0
 11
249.1999999999999
 21
35.499999999999957
 31
0.0
  0
LINE
  5
31E2
  8
0
 10
251.22994614536381
 20
40.37820323127815
 30
0.0
 11
249.1999999999999
 21
40.499999999999993
 31
0.0
  0
ARC
  5
31E3
  8
0
 10
251.1999999999999
 20
39.879100808545267
 30
0.0
 40
0.5
 50
0.0
 51
86.566369637550437
  0
LINE
  5
31E4
  8
0
 10
251.6999999999999
 20
36.120899191454697
 30
0.0
 11
251.6999999999999
 21
37.499999999999957
 31
0.0
  0
ARC
  5
31E5
  8
0
 10
251.1999999999999
 20
36.120899191454697
 30
0.0
 40
0.5
 50
273.43363036244961
 51
0.0
  0
LINE
  5
31E6
  8
0
 10
251.6999999999999
 20
39.879100808545267
 30
0.0
 11
251.6999999999999
 21
38.5
 31
0.0
  0
LINE
  5
31E7
  8
0
 10
250.6999999999999
 20
38.5
 30
0.0
 11
250.6999999999999
 21
37.5
 31
0.0
  0
LINE
  5
31E8
  8
0
 10
251.6999999999999
 20
37.5
 30
0.0
 11
250.6999999999999
 21
37.5
 31
0.0
  0
LINE
  5
31E9
  8
0
 10
251.6999999999999
 20
38.5
 30
0.0
 11
250.6999999999999
 21
38.5
 31
0.0
  0
LINE
  5
32D8
  8
0
 10
249.1999999999999
 20
-43.000000000000057
 30
0.0
 11
246.2000000000001
 21
-43.000000000000057
 31
0.0
  0
LINE
  5
32D9
  8
0
 10
249.1999999999999
 20
-43.000000000000057
 30
0.0
 11
241.95780038807371
 21
-43.000000000000057
 31
0.0
  0
LINE
  5
32DA
  8
0
 10
231.4877265494639
 20
-43.948394907271812
 30
0.0
 11
231.4877265494639
 21
-47.658817774852999
 31
0.0
  0
LINE
  5
32DB
  8
0
 10
237.72229479774489
 20
-44.852432442832381
 30
0.0
 11
237.72229479774489
 21
-48.562855310413532
 31
0.0
  0
LINE
  5
32DC
  8
0
 10
240.69970912454161
 20
-50.697608303407222
 30
0.0
 11
240.69970912453931
 21
-46.98718543582887
 31
0.0
  0
LINE
  5
32DD
  8
0
 10
222.2757439743886
 20
-50.697608303408749
 30
0.0
 11
222.2757439743884
 21
-46.98718543582887
 31
0.0
  0
LINE
  5
32DE
  8
0
 10
225.25315830118291
 20
-44.852432442832381
 30
0.0
 11
225.25315830118291
 21
-48.562855310413532
 31
0.0
  0
ARC
  5
32DF
  8
0
 10
231.4877265494639
 20
-43.225102381545163
 30
0.0
 40
8.6696087345522432
 50
245.3219483027552
 51
294.6780516972446
  0
ARC
  5
32E0
  8
0
 10
231.4877265494639
 20
-58.14702237432725
 30
0.0
 40
8.5330334904247067
 50
65.122103603562763
 51
114.87789639643719
  0
LINE
  5
32E1
  8
0
 10
231.48772654946171
 20
-53.736398831964223
 30
0.0
 11
225.25315830118069
 21
-52.832361296403711
 31
0.0
  0
LINE
  5
32E2
  8
0
 10
231.48772654946171
 20
-47.65881777485329
 30
0.0
 11
225.25315830118069
 21
-48.562855310413859
 31
0.0
  0
LINE
  5
32E3
  8
0
 10
235.75057137738301
 20
-58.169502786031323
 30
0.0
 11
227.16591820062189
 21
-58.169502786031323
 31
0.0
  0
ARC
  5
32E4
  8
0
 10
231.45824478900241
 20
-47.076819266136162
 30
0.0
 40
11.092683519895131
 50
247.2350767444407
 51
292.76492325555921
  0
LINE
  5
32E5
  8
0
 10
240.05429636775361
 20
-55.641252321692782
 30
0.0
 11
222.86219321025141
 21
-55.641252321692782
 31
0.0
  0
LINE
  5
32E6
  8
0
 10
224.56620032383691
 20
-55.641252321692782
 30
0.0
 11
224.56620032383691
 21
-53.113001857354213
 31
0.0
  0
ARC
  5
32E7
  8
0
 10
225.0140557054369
 20
-55.05811419563905
 30
0.0
 40
3.1113885903926328
 50
226.24243683463359
 51
313.75756316536399
  0
LINE
  5
32E8
  8
0
 10
227.16591820062189
 20
-58.169502786031323
 30
0.0
 11
225.01405570543679
 21
-58.169502786031323
 31
0.0
  0
LINE
  5
32E9
  8
0
 10
222.86219321025141
 20
-57.30538515443277
 30
0.0
 11
222.86219321025141
 21
-55.641252321692782
 31
0.0
  0
LINE
  5
32EA
  8
0
 10
227.18855662443389
 20
-53.113001857354213
 30
0.0
 11
222.86219321025141
 21
-53.113001857354213
 31
0.0
  0
LINE
  5
32EB
  8
0
 10
225.25315830118069
 20
-48.562855310413859
 30
0.0
 11
222.2757439743863
 21
-50.697608303410291
 31
0.0
  0
LINE
  5
32EC
  8
0
 10
225.25315830118041
 20
-52.832361296406773
 30
0.0
 11
222.2757439743863
 21
-50.697608303410291
 31
0.0
  0
LINE
  5
32ED
  8
0
 10
222.86219321025141
 20
-53.113001857354213
 30
0.0
 11
222.86219321025141
 21
-51.118081950704877
 31
0.0
  0
ARC
  5
32EE
  8
0
 10
228.1243157374862
 20
-50.764735127133221
 30
0.0
 40
0.4243268062755158
 50
122.23224679872889
 51
232.8392969757243
  0
LINE
  5
32EF
  8
0
 10
237.7222947977472
 20
-52.832361296403711
 30
0.0
 11
240.69970912454161
 21
-50.697608303407222
 31
0.0
  0
LINE
  5
32F0
  8
0
 10
237.7222947977472
 20
-48.562855310413859
 30
0.0
 11
240.69970912454161
 21
-50.697608303410291
 31
0.0
  0
LINE
  5
32F1
  8
0
 10
240.05429636775361
 20
-53.113001857354213
 30
0.0
 11
235.7868964744936
 21
-53.113001857354213
 31
0.0
  0
ARC
  5
32F2
  8
0
 10
237.90243387256791
 20
-55.058114195638247
 30
0.0
 40
3.111388590393207
 50
226.24243683464491
 51
313.75756316535711
  0
LINE
  5
32F3
  8
0
 10
238.3502892541681
 20
-55.641252321692782
 30
0.0
 11
238.3502892541681
 21
-53.113001857354213
 31
0.0
  0
LINE
  5
32F4
  8
0
 10
235.75057137738301
 20
-55.641252321692782
 30
0.0
 11
235.75057137738301
 21
-57.305385154433097
 31
0.0
  0
LINE
  5
32F5
  8
0
 10
237.90243387256791
 20
-58.169502786031323
 30
0.0
 11
235.75057137738301
 21
-58.169502786031323
 31
0.0
  0
LINE
  5
32F6
  8
0
 10
231.487726549466
 20
-53.736398831964223
 30
0.0
 11
237.7222947977472
 21
-52.832361296403711
 31
0.0
  0
LINE
  5
32F7
  8
0
 10
231.487726549466
 20
-47.65881777485329
 30
0.0
 11
237.7222947977472
 21
-48.562855310413859
 31
0.0
  0
ARC
  5
32F8
  8
0
 10
234.8511373614416
 20
-50.764735127133221
 30
0.0
 40
0.4243268062755158
 50
307.16070302427562
 51
57.767753201270999
  0
LINE
  5
32F9
  8
0
 10
240.05429636775361
 20
-57.305385154433338
 30
0.0
 11
240.05429636775361
 21
-55.641252321692782
 31
0.0
  0
LINE
  5
32FA
  8
0
 10
240.05429636775361
 20
-51.160357744044973
 30
0.0
 11
240.05429636775361
 21
-53.113001857354213
 31
0.0
  0
ARC
  5
32FB
  8
0
 10
231.59697997255211
 20
-57.160859343328987
 30
0.0
 40
14.93141625830204
 50
56.894423584626963
 51
123.1055764153712
  0
ARC
  5
32FC
  8
0
 10
231.48772654946401
 20
-57.192137778978349
 30
0.0
 40
17.005580066645241
 50
54.200970993750452
 51
125.7990290062495
  0
LINE
  5
32FD
  8
0
 10
231.4877265494639
 20
-43.948394907271812
 30
0.0
 11
225.25315830118291
 21
-44.852432442832381
 31
0.0
  0
ARC
  5
32FE
  8
0
 10
231.4877265494637
 20
-40.650378869081997
 30
0.0
 40
12.60815275542957
 50
33.857998802880211
 51
146.14200119711711
  0
LINE
  5
32FF
  8
0
 10
221.01765271085389
 20
-44.841823036288631
 30
0.0
 11
221.01765271085389
 21
-33.625916632134242
 31
0.0
  0
LINE
  5
3300
  8
0
 10
221.01765271085381
 20
-44.841823036288723
 30
0.0
 11
221.01765271085381
 21
-33.62591663213432
 31
0.0
  0
ARC
  5
3301
  8
0
 10
223.39691993774429
 20
-44.888132888009572
 30
0.0
 40
2.3797178696897441
 50
141.27305377249331
 51
241.89179587316031
  0
LINE
  5
3302
  8
0
 10
223.4416869162564
 20
-46.151225132146308
 30
0.0
 11
223.4416869162564
 21
-44.653326147505723
 31
0.0
  0
LINE
  5
3303
  8
0
 10
225.25315830118291
 20
-44.852432442832381
 30
0.0
 11
222.2757439743884
 21
-46.98718543582887
 31
0.0
  0
LINE
  5
3304
  8
0
 10
241.95780038807379
 20
-33.625916632134633
 30
0.0
 11
241.95780038807379
 21
-44.653326147505709
 31
0.0
  0
LINE
  5
3305
  8
0
 10
241.95780038807391
 20
-33.625916632134711
 30
0.0
 11
241.95780038807391
 21
-44.65332614750578
 31
0.0
  0
LINE
  5
3306
  8
0
 10
237.72229479774489
 20
-44.852432442832381
 30
0.0
 11
240.69970912453931
 21
-46.98718543582887
 31
0.0
  0
LINE
  5
3307
  8
0
 10
231.4877265494639
 20
-43.948394907271812
 30
0.0
 11
237.72229479774489
 21
-44.852432442832381
 31
0.0
  0
LINE
  5
3308
  8
0
 10
239.75227302884821
 20
-46.151225132146308
 30
0.0
 11
239.75227302884821
 21
-44.653326147505723
 31
0.0
  0
ARC
  5
3309
  8
0
 10
239.57853295310119
 20
-44.888132845362712
 30
0.0
 40
2.3797180053420761
 50
298.10820806217282
 51
38.726942292199382
  0
LINE
  5
330A
  8
0
 10
251.7000000000001
 20
-37.5
 30
0.0
 11
250.7000000000001
 21
-37.5
 31
0.0
  0
LINE
  5
330B
  8
0
 10
251.7000000000001
 20
-38.5
 30
0.0
 11
250.7000000000001
 21
-38.5
 31
0.0
  0
LINE
  5
330C
  8
0
 10
250.7000000000001
 20
-38.5
 30
0.0
 11
250.7000000000001
 21
-37.5
 31
0.0
  0
LINE
  5
330D
  8
0
 10
251.7000000000001
 20
-36.120899191454711
 30
0.0
 11
251.7000000000001
 21
-37.499999999999922
 31
0.0
  0
ARC
  5
330E
  8
0
 10
251.1999999999999
 20
-36.120899191454711
 30
0.0
 40
0.5
 50
0.0
 51
86.566369637550423
  0
LINE
  5
330F
  8
0
 10
251.7000000000001
 20
-39.879100808545267
 30
0.0
 11
251.7000000000001
 21
-38.5
 31
0.0
  0
LINE
  5
3310
  8
0
 10
251.22994614536401
 20
-35.621796768721829
 30
0.0
 11
249.1999999999999
 21
-35.49999999999995
 31
0.0
  0
LINE
  5
3311
  8
0
 10
251.22994614536401
 20
-40.378203231278157
 30
0.0
 11
249.1999999999999
 21
-40.499999999999993
 31
0.0
  0
ARC
  5
3312
  8
0
 10
251.1999999999999
 20
-39.879100808545267
 30
0.0
 40
0.5
 50
273.43363036244961
 51
0.0
  0
ENDSEC
  0
EOF
