  0
SECTION
  2
HEADER
  9
$ACADVER
  1
AC1009
  9
$INSBASE
 10
0.0
 20
0.0
 30
0.0
  9
$EXTMIN
 10
-35.932118597536032
 20
-64.422488123684502
 30
-0.0015258207003583
  9
$EXTMAX
 10
207.66859815441879
 20
43.007545556552827
 30
0.0000000349246037
  9
$LIMMIN
 10
0.0
 20
0.0
  9
$LIMMAX
 10
410.0
 20
287.0
  9
$ORTHOMODE
 70
     1
  9
$REGENMODE
 70
     1
  9
$FILLMODE
 70
     1
  9
$QTEXTMODE
 70
     0
  9
$MIRRTEXT
 70
     1
  9
$DRAGMODE
 70
     2
  9
$LTSCALE
 40
25.0
  9
$OSMODE
 70
    39
  9
$ATTMODE
 70
     1
  9
$TEXTSIZE
 40
5.0
  9
$TRACEWID
 40
0.6
  9
$TEXTSTYLE
  7
TEXT50
  9
$CLAYER
  8
0
  9
$CELTYPE
  6
BYLAYER
  9
$CECOLOR
 62
   256
  9
$DIMSCALE
 40
1.0
  9
$DIMASZ
 40
3.5
  9
$DIMEXO
 40
0.1
  9
$DIMDLI
 40
7.0
  9
$DIMRND
 40
0.0
  9
$DIMDLE
 40
0.0
  9
$DIMEXE
 40
1.8
  9
$DIMTP
 40
0.0
  9
$DIMTM
 40
0.0
  9
$DIMTXT
 40
3.5
  9
$DIMCEN
 40
1.5
  9
$DIMTSZ
 40
0.0
  9
$DIMTOL
 70
     0
  9
$DIMLIM
 70
     0
  9
$DIMTIH
 70
     0
  9
$DIMTOH
 70
     0
  9
$DIMSE1
 70
     0
  9
$DIMSE2
 70
     0
  9
$DIMTAD
 70
     1
  9
$DIMZIN
 70
     0
  9
$DIMBLK
  1

  9
$DIMASO
 70
     0
  9
$DIMSHO
 70
     1
  9
$DIMPOST
  1

  9
$DIMAPOST
  1

  9
$DIMALT
 70
     0
  9
$DIMALTD
 70
     2
  9
$DIMALTF
 40
25.399999999999999
  9
$DIMLFAC
 40
1.0
  9
$DIMTOFL
 70
     0
  9
$DIMTVP
 40
0.0
  9
$DIMTIX
 70
     0
  9
$DIMSOXD
 70
     0
  9
$DIMSAH
 70
     0
  9
$DIMBLK1
  1

  9
$DIMBLK2
  1

  9
$DIMSTYLE
  2
STANDARD
  9
$DIMCLRD
 70
     0
  9
$DIMCLRE
 70
     0
  9
$DIMCLRT
 70
     0
  9
$DIMTFAC
 40
1.0
  9
$DIMGAP
 40
0.09
  9
$LUNITS
 70
     2
  9
$LUPREC
 70
     1
  9
$SKETCHINC
 40
0.1
  9
$FILLETRAD
 40
0.0
  9
$AUNITS
 70
     0
  9
$AUPREC
 70
     0
  9
$MENU
  1
acad
  9
$ELEVATION
 40
0.0
  9
$PELEVATION
 40
0.0
  9
$THICKNESS
 40
0.0
  9
$LIMCHECK
 70
     0
  9
$BLIPMODE
 70
     0
  9
$CHAMFERA
 40
1.0
  9
$CHAMFERB
 40
1.0
  9
$SKPOLY
 70
     0
  9
$TDCREATE
 40
2449016.4831520831
  9
$TDUPDATE
 40
2452677.7551585301
  9
$TDINDWG
 40
0.1520435069
  9
$TDUSRTIMER
 40
0.1520421181
  9
$USRTIMER
 70
     1
  9
$ANGBASE
 50
0.0
  9
$ANGDIR
 70
     0
  9
$PDMODE
 70
     0
  9
$PDSIZE
 40
0.0
  9
$PLINEWID
 40
0.0
  9
$COORDS
 70
     0
  9
$SPLFRAME
 70
     0
  9
$SPLINETYPE
 70
     6
  9
$SPLINESEGS
 70
     8
  9
$ATTDIA
 70
     0
  9
$ATTREQ
 70
     1
  9
$HANDLING
 70
  4097
  9
$HANDSEED
  5
3FD
  9
$SURFTAB1
 70
     6
  9
$SURFTAB2
 70
     6
  9
$SURFTYPE
 70
     6
  9
$SURFU
 70
     6
  9
$SURFV
 70
     6
  9
$UCSNAME
  2

  9
$UCSORG
 10
0.0
 20
0.0
 30
0.0
  9
$UCSXDIR
 10
1.0
 20
0.0
 30
0.0
  9
$UCSYDIR
 10
0.0
 20
1.0
 30
0.0
  9
$PUCSNAME
  2

  9
$PUCSORG
 10
0.0
 20
0.0
 30
0.0
  9
$PUCSXDIR
 10
1.0
 20
0.0
 30
0.0
  9
$PUCSYDIR
 10
0.0
 20
1.0
 30
0.0
  9
$USERI1
 70
     0
  9
$USERI2
 70
     0
  9
$USERI3
 70
     0
  9
$USERI4
 70
     0
  9
$USERI5
 70
     0
  9
$USERR1
 40
0.0
  9
$USERR2
 40
0.0
  9
$USERR3
 40
0.0
  9
$USERR4
 40
0.0
  9
$USERR5
 40
0.0
  9
$WORLDVIEW
 70
     1
  9
$SHADEDGE
 70
     3
  9
$SHADEDIF
 70
    70
  9
$TILEMODE
 70
     1
  9
$MAXACTVP
 70
    48
  9
$PLIMCHECK
 70
     0
  9
$PEXTMIN
 10
1.0000000000000000E+020
 20
1.0000000000000000E+020
 30
1.0000000000000000E+020
  9
$PEXTMAX
 10
-1.0000000000000000E+020
 20
-1.0000000000000000E+020
 30
-1.0000000000000000E+020
  9
$PLIMMIN
 10
0.0
 20
0.0
  9
$PLIMMAX
 10
12.0
 20
9.0
  9
$UNITMODE
 70
     0
  9
$VISRETAIN
 70
     1
  9
$PLINEGEN
 70
     0
  9
$PSLTSCALE
 70
     0
  0
ENDSEC
  0
SECTION
  2
TABLES
  0
TABLE
  2
VPORT
 70
     3
  0
VPORT
  2
*ACTIVE
 70
     0
 10
0.0
 20
0.0
 11
1.0
 21
1.0
 12
85.868239778441421
 22
-10.70747128356583
 13
0.0
 23
0.0
 14
0.5
 24
0.5
 15
10.0
 25
10.0
 16
0.0
 26
0.0
 36
1.0
 17
0.0
 27
0.0
 37
0.0
 40
115.5217825158103
 41
2.126099706744867
 42
50.0
 43
0.0
 44
0.0
 50
0.0
 51
0.0
 71
     0
 72
   100
 73
     1
 74
     0
 75
     0
 76
     0
 77
     0
 78
     0
  0
ENDTAB
  0
TABLE
  2
LTYPE
 70
     2
  0
LTYPE
  2
CONTINUOUS
 70
     0
  3
Solid line
 72
    65
 73
     0
 40
0.0
  0
LTYPE
  2
MITTKLEIN
 70
     0
  3
__ . __ . ___ 
 72
    65
 73
     4
 40
0.45
 49
0.25
 49
-0.1
 49
0.0
 49
-0.1
  0
ENDTAB
  0
TABLE
  2
LAYER
 70
     2
  0
LAYER
  2
0
 70
     0
 62
     7
  6
CONTINUOUS
  0
LAYER
  2
MITTELLI
 70
     0
 62
     1
  6
MITTKLEIN
  0
ENDTAB
  0
TABLE
  2
STYLE
 70
     4
  0
STYLE
  2
STANDARD
 70
     0
 40
0.0
 41
1.0
 50
0.0
 71
     0
 42
0.2
  3
txt
  4

  0
STYLE
  2
TEXT50
 70
     0
 40
5.0
 41
1.0
 50
0.0
 71
     0
 42
5.0
  3
8simplex
  4

  0
STYLE
  2
TXT
 70
     0
 40
0.0
 41
1.0
 50
0.0
 71
     0
 42
2.5
  3
8txt
  4

  0
STYLE
  2
SIMPLEX
 70
     0
 40
0.0
 41
0.8
 50
0.0
 71
     0
 42
8.0
  3
simplex
  4

  0
ENDTAB
  0
TABLE
  2
VIEW
 70
     0
  0
ENDTAB
  0
TABLE
  2
UCS
 70
     0
  0
ENDTAB
  0
TABLE
  2
APPID
 70
     1
  0
APPID
  2
ACAD
 70
     0
  0
ENDTAB
  0
TABLE
  2
DIMSTYLE
 70
     1
  0
DIMSTYLE
  2
STANDARD
 70
     0
  3

  4

  5

  6

  7

 40
1.0
 41
0.18
 42
0.0625
 43
0.38
 44
0.18
 45
0.0
 46
0.0
 47
0.0
 48
0.0
140
0.18
141
0.09
142
0.0
143
25.399999999999999
144
1.0
145
0.0
146
1.0
147
0.09
 71
     0
 72
     0
 73
     1
 74
     1
 75
     0
 76
     0
 77
     0
 78
     0
170
     0
171
     2
172
     0
173
     0
174
     0
175
     0
176
     0
177
     0
178
     0
  0
ENDTAB
  0
ENDSEC
  0
SECTION
  2
BLOCKS
  0
BLOCK
  8
0
  2
$MODEL_SPACE
 70
     0
 10
0.0
 20
0.0
 30
0.0
  3
$MODEL_SPACE
  1

  0
ENDBLK
  5
128
  8
0
  0
BLOCK
 67
     1
  8
0
  2
$PAPER_SPACE
 70
     0
 10
0.0
 20
0.0
 30
0.0
  3
$PAPER_SPACE
  1

  0
ENDBLK
  5
124
 67
     1
  8
0
  0
ENDSEC
  0
SECTION
  2
ENTITIES
  0
LINE
  5
139
  8
MITTELLI
 10
207.63415604558679
 20
-0.0000000000000413
 30
0.0
 11
-35.905839719850633
 21
-0.000000000000001
 31
0.0
  0
LINE
  5
13A
  8
0
 10
202.49999999999989
 20
42.999999999999979
 30
0.0
 11
0.0
 21
42.999999999999893
 31
0.0
  0
LINE
  5
13B
  8
0
 10
0.0
 20
42.999999999999893
 30
0.0
 11
-0.0000000000001137
 21
-43.0
 31
0.0
  0
LINE
  5
13C
  8
0
 10
-1.5000000000001119
 20
36.5
 30
0.0
 11
-1.5000000000001119
 21
-36.5
 31
0.0
  0
LINE
  5
13D
  8
0
 10
-1.5000000000001119
 20
6.0
 30
0.0
 11
-30.50000000000011
 21
6.0
 31
0.0
  0
LINE
  5
13E
  8
0
 10
-1.5000000000001119
 20
-6.0
 30
0.0
 11
-30.50000000000011
 21
-6.0
 31
0.0
  0
LINE
  5
13F
  8
0
 10
-30.50000000000011
 20
6.0
 30
0.0
 11
-30.50000000000011
 21
-6.0
 31
0.0
  0
LINE
  5
140
  8
0
 10
-31.50000000000011
 20
5.0
 30
0.0
 11
-31.50000000000011
 21
-5.0
 31
0.0
  0
LINE
  5
141
  8
0
 10
-30.50000000000011
 20
-6.0
 30
0.0
 11
-31.50000000000011
 21
-5.0
 31
0.0
  0
LINE
  5
142
  8
0
 10
-30.50000000000011
 20
6.0
 30
0.0
 11
-31.50000000000011
 21
5.0
 31
0.0
  0
LINE
  5
143
  8
0
 10
169.99999999999969
 20
-43.000000000000142
 30
0.0
 11
-0.0000000000001137
 21
-43.0
 31
0.0
  0
TEXT
  5
144
  8
0
 10
11.543676545095421
 20
-38.719024203175287
 30
0.0
 40
3.2000000000000002
  1
SM 88.3.18 M BE50
  7
SIMPLEX
  0
LINE
  5
145
  8
0
 10
-1.5000000000001119
 20
-36.5
 30
0.0
 11
-0.0000000000001137
 21
-36.5
 31
0.0
  0
LINE
  5
146
  8
0
 10
-1.5000000000001119
 20
36.5
 30
0.0
 11
-0.0000000000001137
 21
36.5
 31
0.0
  0
LINE
  5
147
  8
0
 10
7.0
 20
42.999999999999893
 30
0.0
 11
6.9999999999998863
 21
-43.0
 31
0.0
  0
LINE
  5
148
  8
0
 10
124.9999999999998
 20
42.999999999999858
 30
0.0
 11
124.9999999999998
 21
-43.000000000000057
 31
0.0
  0
LINE
  5
149
  8
0
 10
169.99999999999969
 20
42.999999999999822
 30
0.0
 11
169.99999999999969
 21
-45.000000000000092
 31
0.0
  0
LINE
  5
14A
  8
0
 10
199.49999999999989
 20
42.999999999999822
 30
0.0
 11
199.49999999999989
 21
-45.000000000000092
 31
0.0
  0
LINE
  5
14B
  8
0
 10
202.49999999999989
 20
42.999999999999979
 30
0.0
 11
202.49999999999989
 21
-43.000000000000142
 31
0.0
  0
LINE
  5
14C
  8
0
 10
127.9999999999997
 20
42.999999999999822
 30
0.0
 11
127.9999999999997
 21
-43.000000000000092
 31
0.0
  0
LINE
  5
168
  8
0
 10
203.9999999999998
 20
38.499999999999893
 30
0.0
 11
203.9999999999998
 21
37.499999999999893
 31
0.0
  0
LINE
  5
169
  8
0
 10
204.9999999999998
 20
37.499999999999893
 30
0.0
 11
203.9999999999998
 21
37.499999999999893
 31
0.0
  0
LINE
  5
16A
  8
0
 10
204.9999999999998
 20
36.12089919145459
 30
0.0
 11
204.9999999999998
 21
37.499999999999851
 31
0.0
  0
LINE
  5
16B
  8
0
 10
204.52994614536371
 20
35.621796768721708
 30
0.0
 11
202.49999999999989
 21
35.499999999999851
 31
0.0
  0
ARC
  5
16C
  8
0
 10
204.49999999999989
 20
36.12089919145459
 30
0.0
 40
0.5
 50
273.43363036244961
 51
0.0
  0
LINE
  5
16D
  8
0
 10
204.52994614536371
 20
40.378203231278029
 30
0.0
 11
202.49999999999989
 21
40.499999999999893
 31
0.0
  0
LINE
  5
16E
  8
0
 10
204.9999999999998
 20
38.499999999999893
 30
0.0
 11
203.9999999999998
 21
38.499999999999893
 31
0.0
  0
LINE
  5
16F
  8
0
 10
204.9999999999998
 20
39.879100808545168
 30
0.0
 11
204.9999999999998
 21
38.499999999999893
 31
0.0
  0
ARC
  5
170
  8
0
 10
204.49999999999989
 20
39.879100808545168
 30
0.0
 40
0.5
 50
0.0
 51
86.566369637550437
  0
LINE
  5
38A
  8
0
 10
199.49999999999989
 20
-45.000000000000092
 30
0.0
 11
195.25562014642449
 21
-45.000000000000092
 31
0.0
  0
LINE
  5
38B
  8
0
 10
184.7877265494615
 20
-53.736398831964259
 30
0.0
 11
178.5531583011805
 21
-52.832361296403747
 31
0.0
  0
LINE
  5
38C
  8
0
 10
184.78772654946579
 20
-53.736398831964259
 30
0.0
 11
191.02229479774701
 21
-52.832361296403747
 31
0.0
  0
LINE
  5
38D
  8
0
 10
195.7499999999998
 20
-45.000000000000028
 30
0.0
 11
195.7499999999998
 21
-57.94117647058826
 31
0.0
  0
LINE
  5
38E
  8
0
 10
173.7499999999998
 20
-57.94117647058826
 30
0.0
 11
173.7499999999998
 21
-45.000000000000028
 31
0.0
  0
ARC
  5
38F
  8
0
 10
184.74999999999969
 20
-50.216931461690137
 30
0.0
 40
14.194833244192219
 50
247.2350767444407
 51
292.76492325555921
  0
LINE
  5
390
  8
0
 10
190.24270697594449
 20
-64.411764705882376
 30
0.0
 11
179.2572930240552
 21
-64.411764705882376
 31
0.0
  0
LINE
  5
391
  8
0
 10
195.7499999999998
 20
-61.17647058823534
 30
0.0
 11
173.7499999999998
 21
-61.17647058823534
 31
0.0
  0
LINE
  5
392
  8
0
 10
195.7499999999998
 20
-57.94117647058826
 30
0.0
 11
173.7499999999998
 21
-57.94117647058826
 31
0.0
  0
LINE
  5
393
  8
0
 10
175.93054511163851
 20
-61.17647058823534
 30
0.0
 11
175.93054511163851
 21
-57.94117647058826
 31
0.0
  0
ARC
  5
394
  8
0
 10
176.50364651202759
 20
-60.430253638764327
 30
0.0
 40
3.981511067118523
 50
226.24243683463359
 51
313.75756316536399
  0
LINE
  5
395
  8
0
 10
173.7499999999998
 20
-63.305990286021917
 30
0.0
 11
173.7499999999998
 21
-61.17647058823534
 31
0.0
  0
LINE
  5
396
  8
0
 10
179.2572930240552
 20
-64.411764705882376
 30
0.0
 11
176.5036465120275
 21
-64.411764705882376
 31
0.0
  0
LINE
  5
397
  8
0
 10
193.56945488836101
 20
-61.17647058823534
 30
0.0
 11
193.56945488836101
 21
-57.94117647058826
 31
0.0
  0
ARC
  5
398
  8
0
 10
192.99635348797159
 20
-60.430253638763311
 30
0.0
 40
3.9815110671192571
 50
226.2424368346451
 51
313.75756316535711
  0
LINE
  5
399
  8
0
 10
192.99635348797159
 20
-64.411764705882376
 30
0.0
 11
190.24270697594449
 21
-64.411764705882376
 31
0.0
  0
LINE
  5
39A
  8
0
 10
190.24270697594449
 20
-61.17647058823534
 30
0.0
 11
190.24270697594449
 21
-63.305990286022372
 31
0.0
  0
LINE
  5
39B
  8
0
 10
195.7499999999998
 20
-63.305990286022649
 30
0.0
 11
195.7499999999998
 21
-61.17647058823534
 31
0.0
  0
LINE
  5
39C
  8
0
 10
184.78772654946371
 20
-43.948394907271847
 30
0.0
 11
178.55315830118269
 21
-44.852432442832423
 31
0.0
  0
LINE
  5
39D
  8
0
 10
184.7877265494615
 20
-47.658817774853333
 30
0.0
 11
178.5531583011805
 21
-48.562855310413902
 31
0.0
  0
ARC
  5
39E
  8
0
 10
184.89697997255189
 20
-57.16085934332903
 30
0.0
 40
14.93141625830204
 50
56.894423584626963
 51
123.1055764153712
  0
ARC
  5
39F
  8
0
 10
184.7877265494638
 20
-57.192137778978392
 30
0.0
 40
17.005580066645241
 50
54.200970993750452
 51
125.7990290062495
  0
ARC
  5
3A0
  8
0
 10
184.78772654946351
 20
-40.65037886908204
 30
0.0
 40
12.60815275542957
 50
33.857998802880211
 51
146.14200119711711
  0
LINE
  5
3A1
  8
0
 10
174.31765271085371
 20
-44.841823036288673
 30
0.0
 11
174.31765271085371
 21
-33.62591663213427
 31
0.0
  0
LINE
  5
3A2
  8
0
 10
174.31765271085359
 20
-44.841823036288758
 30
0.0
 11
174.31765271085359
 21
-33.625916632134363
 31
0.0
  0
LINE
  5
3A3
  8
0
 10
174.31983287821609
 20
-45.000000000000092
 30
0.0
 11
169.9999999999998
 21
-45.000000000000092
 31
0.0
  0
LINE
  5
3A4
  8
0
 10
178.55315830118269
 20
-44.852432442832423
 30
0.0
 11
178.55315830118269
 21
-48.562855310413568
 31
0.0
  0
ARC
  5
3A5
  8
0
 10
176.6969199377441
 20
-44.888132888009608
 30
0.0
 40
2.3797178696897441
 50
141.27305377249331
 51
241.89179587316031
  0
LINE
  5
3A6
  8
0
 10
178.55315830118269
 20
-44.852432442832423
 30
0.0
 11
175.57574397438819
 21
-46.987185435828913
 31
0.0
  0
LINE
  5
3A7
  8
0
 10
175.57574397438839
 20
-50.697608303408792
 30
0.0
 11
175.57574397438819
 21
-46.987185435828913
 31
0.0
  0
LINE
  5
3A8
  8
0
 10
178.5531583011805
 20
-48.562855310413902
 30
0.0
 11
175.57574397438611
 21
-50.69760830341032
 31
0.0
  0
LINE
  5
3A9
  8
0
 10
178.55315830118019
 20
-52.832361296406802
 30
0.0
 11
175.57574397438611
 21
-50.69760830341032
 31
0.0
  0
LINE
  5
3AA
  8
0
 10
174.31765271085371
 20
-43.000000000000099
 30
0.0
 11
172.58148316583939
 21
-43.000000000000092
 31
0.0
  0
LINE
  5
3AB
  8
0
 10
176.74168691625621
 20
-46.151225132146337
 30
0.0
 11
176.74168691625621
 21
-44.653326147505751
 31
0.0
  0
LINE
  5
3AC
  8
0
 10
195.2578003880736
 20
-33.625916632134661
 30
0.0
 11
195.2578003880736
 21
-44.653326147505737
 31
0.0
  0
LINE
  5
3AD
  8
0
 10
195.25780038807369
 20
-33.625916632134746
 30
0.0
 11
195.25780038807369
 21
-44.653326147505823
 31
0.0
  0
ARC
  5
3AE
  8
0
 10
188.15113736144141
 20
-50.764735127133257
 30
0.0
 40
0.4243268062755158
 50
307.16070302427562
 51
57.767753201270999
  0
LINE
  5
3AF
  8
0
 10
184.78772654946579
 20
-47.658817774853333
 30
0.0
 11
191.02229479774701
 21
-48.562855310413902
 31
0.0
  0
LINE
  5
3B0
  8
0
 10
184.78772654946371
 20
-43.948394907271847
 30
0.0
 11
191.02229479774471
 21
-44.852432442832423
 31
0.0
  0
LINE
  5
3B1
  8
0
 10
184.78772654946371
 20
-43.948394907271847
 30
0.0
 11
184.78772654946371
 21
-47.658817774853027
 31
0.0
  0
ARC
  5
3B2
  8
0
 10
184.78772654946371
 20
-43.225102381545199
 30
0.0
 40
8.6696087345522432
 50
245.3219483027552
 51
294.6780516972446
  0
ARC
  5
3B3
  8
0
 10
184.78772654946371
 20
-58.147022374327292
 30
0.0
 40
8.5330334904247067
 50
65.122103603562763
 51
114.87789639643719
  0
ARC
  5
3B4
  8
0
 10
181.42431573748601
 20
-50.764735127133257
 30
0.0
 40
0.4243268062755158
 50
122.23224679872889
 51
232.8392969757243
  0
ARC
  5
3B5
  8
0
 10
192.878532953101
 20
-44.88813284536274
 30
0.0
 40
2.3797180053420761
 50
298.10820806217282
 51
38.726942292199382
  0
LINE
  5
3B6
  8
0
 10
191.02229479774471
 20
-44.852432442832423
 30
0.0
 11
191.02229479774471
 21
-48.562855310413568
 31
0.0
  0
LINE
  5
3B7
  8
0
 10
191.02229479774471
 20
-44.852432442832423
 30
0.0
 11
193.99970912453909
 21
-46.987185435828913
 31
0.0
  0
LINE
  5
3B8
  8
0
 10
191.02229479774701
 20
-52.832361296403747
 30
0.0
 11
193.9997091245414
 21
-50.697608303407257
 31
0.0
  0
LINE
  5
3B9
  8
0
 10
191.02229479774701
 20
-48.562855310413902
 30
0.0
 11
193.9997091245414
 21
-50.69760830341032
 31
0.0
  0
LINE
  5
3BA
  8
0
 10
193.9997091245414
 20
-50.697608303407257
 30
0.0
 11
193.99970912453909
 21
-46.987185435828913
 31
0.0
  0
LINE
  5
3BB
  8
0
 10
195.2578003880736
 20
-43.000000000000099
 30
0.0
 11
196.9185168341603
 21
-43.000000000000092
 31
0.0
  0
LINE
  5
3BC
  8
0
 10
193.05227302884799
 20
-46.151225132146337
 30
0.0
 11
193.05227302884799
 21
-44.653326147505751
 31
0.0
  0
LINE
  5
3BD
  8
0
 10
204.9999999999998
 20
-39.87910080854536
 30
0.0
 11
204.9999999999998
 21
-38.500000000000092
 31
0.0
  0
LINE
  5
3BE
  8
0
 10
202.49999999999989
 20
-43.000000000000142
 30
0.0
 11
199.49999999999989
 21
-43.000000000000142
 31
0.0
  0
ARC
  5
3BF
  8
0
 10
204.49999999999989
 20
-39.87910080854536
 30
0.0
 40
0.5
 50
273.43363036244961
 51
0.0
  0
LINE
  5
3C0
  8
0
 10
204.52994614536371
 20
-40.378203231278242
 30
0.0
 11
202.49999999999989
 21
-40.500000000000078
 31
0.0
  0
ARC
  5
3C1
  8
0
 10
204.49999999999989
 20
-36.120899191454782
 30
0.0
 40
0.5
 50
0.0
 51
86.566369637550423
  0
LINE
  5
3C2
  8
0
 10
204.9999999999998
 20
-36.120899191454782
 30
0.0
 11
204.9999999999998
 21
-37.50000000000005
 31
0.0
  0
LINE
  5
3C3
  8
0
 10
203.9999999999998
 20
-38.500000000000092
 30
0.0
 11
203.9999999999998
 21
-37.500000000000092
 31
0.0
  0
LINE
  5
3C4
  8
0
 10
204.9999999999998
 20
-38.500000000000092
 30
0.0
 11
203.9999999999998
 21
-38.500000000000092
 31
0.0
  0
LINE
  5
3C5
  8
0
 10
204.9999999999998
 20
-37.500000000000092
 30
0.0
 11
203.9999999999998
 21
-37.500000000000092
 31
0.0
  0
LINE
  5
3C6
  8
0
 10
204.52994614536371
 20
-35.621796768721921
 30
0.0
 11
202.49999999999989
 21
-35.500000000000057
 31
0.0
  0
ENDSEC
  0
EOF
