  0
SECTION
  2
HEADER
  9
$ACADVER
  1
AC1009
  9
$INSBASE
 10
0.0
 20
0.0
 30
0.0
  9
$EXTMIN
 10
-36.44953728334383
 20
-53.746796488308973
 30
-0.0000000000022887
  9
$EXTMAX
 10
214.56751396518899
 20
43.010777419905587
 30
0.0000000000000001
  9
$LIMMIN
 10
0.0
 20
0.0
  9
$LIMMAX
 10
410.0
 20
287.0
  9
$ORTHOMODE
 70
     1
  9
$REGENMODE
 70
     1
  9
$FILLMODE
 70
     1
  9
$QTEXTMODE
 70
     0
  9
$MIRRTEXT
 70
     1
  9
$DRAGMODE
 70
     2
  9
$LTSCALE
 40
25.0
  9
$OSMODE
 70
    39
  9
$ATTMODE
 70
     1
  9
$TEXTSIZE
 40
5.0
  9
$TRACEWID
 40
0.6
  9
$TEXTSTYLE
  7
TEXT50
  9
$CLAYER
  8
0
  9
$CELTYPE
  6
BYLAYER
  9
$CECOLOR
 62
   256
  9
$DIMSCALE
 40
1.0
  9
$DIMASZ
 40
3.5
  9
$DIMEXO
 40
0.1
  9
$DIMDLI
 40
7.0
  9
$DIMRND
 40
0.0
  9
$DIMDLE
 40
0.0
  9
$DIMEXE
 40
1.8
  9
$DIMTP
 40
0.0
  9
$DIMTM
 40
0.0
  9
$DIMTXT
 40
3.5
  9
$DIMCEN
 40
1.5
  9
$DIMTSZ
 40
0.0
  9
$DIMTOL
 70
     0
  9
$DIMLIM
 70
     0
  9
$DIMTIH
 70
     0
  9
$DIMTOH
 70
     0
  9
$DIMSE1
 70
     0
  9
$DIMSE2
 70
     0
  9
$DIMTAD
 70
     1
  9
$DIMZIN
 70
     0
  9
$DIMBLK
  1

  9
$DIMASO
 70
     0
  9
$DIMSHO
 70
     1
  9
$DIMPOST
  1

  9
$DIMAPOST
  1

  9
$DIMALT
 70
     0
  9
$DIMALTD
 70
     2
  9
$DIMALTF
 40
25.399999999999999
  9
$DIMLFAC
 40
1.0
  9
$DIMTOFL
 70
     0
  9
$DIMTVP
 40
0.0
  9
$DIMTIX
 70
     0
  9
$DIMSOXD
 70
     0
  9
$DIMSAH
 70
     0
  9
$DIMBLK1
  1

  9
$DIMBLK2
  1

  9
$DIMSTYLE
  2
STANDARD
  9
$DIMCLRD
 70
     0
  9
$DIMCLRE
 70
     0
  9
$DIMCLRT
 70
     0
  9
$DIMTFAC
 40
1.0
  9
$DIMGAP
 40
0.09
  9
$LUNITS
 70
     2
  9
$LUPREC
 70
     1
  9
$SKETCHINC
 40
0.1
  9
$FILLETRAD
 40
0.0
  9
$AUNITS
 70
     0
  9
$AUPREC
 70
     0
  9
$MENU
  1
acad
  9
$ELEVATION
 40
0.0
  9
$PELEVATION
 40
0.0
  9
$THICKNESS
 40
0.0
  9
$LIMCHECK
 70
     0
  9
$BLIPMODE
 70
     0
  9
$CHAMFERA
 40
1.0
  9
$CHAMFERB
 40
1.0
  9
$SKPOLY
 70
     0
  9
$TDCREATE
 40
2449016.4831520831
  9
$TDUPDATE
 40
2452677.7613434601
  9
$TDINDWG
 40
0.1439565278
  9
$TDUSRTIMER
 40
0.1439565278
  9
$USRTIMER
 70
     1
  9
$ANGBASE
 50
0.0
  9
$ANGDIR
 70
     0
  9
$PDMODE
 70
     0
  9
$PDSIZE
 40
0.0
  9
$PLINEWID
 40
0.0
  9
$COORDS
 70
     0
  9
$SPLFRAME
 70
     0
  9
$SPLINETYPE
 70
     6
  9
$SPLINESEGS
 70
     8
  9
$ATTDIA
 70
     0
  9
$ATTREQ
 70
     1
  9
$HANDLING
 70
  4097
  9
$HANDSEED
  5
156
  9
$SURFTAB1
 70
     6
  9
$SURFTAB2
 70
     6
  9
$SURFTYPE
 70
     6
  9
$SURFU
 70
     6
  9
$SURFV
 70
     6
  9
$UCSNAME
  2

  9
$UCSORG
 10
0.0
 20
0.0
 30
0.0
  9
$UCSXDIR
 10
1.0
 20
0.0
 30
0.0
  9
$UCSYDIR
 10
0.0
 20
1.0
 30
0.0
  9
$PUCSNAME
  2

  9
$PUCSORG
 10
0.0
 20
0.0
 30
0.0
  9
$PUCSXDIR
 10
1.0
 20
0.0
 30
0.0
  9
$PUCSYDIR
 10
0.0
 20
1.0
 30
0.0
  9
$USERI1
 70
     0
  9
$USERI2
 70
     0
  9
$USERI3
 70
     0
  9
$USERI4
 70
     0
  9
$USERI5
 70
     0
  9
$USERR1
 40
0.0
  9
$USERR2
 40
0.0
  9
$USERR3
 40
0.0
  9
$USERR4
 40
0.0
  9
$USERR5
 40
0.0
  9
$WORLDVIEW
 70
     1
  9
$SHADEDGE
 70
     3
  9
$SHADEDIF
 70
    70
  9
$TILEMODE
 70
     1
  9
$MAXACTVP
 70
    48
  9
$PLIMCHECK
 70
     0
  9
$PEXTMIN
 10
1.0000000000000000E+020
 20
1.0000000000000000E+020
 30
1.0000000000000000E+020
  9
$PEXTMAX
 10
-1.0000000000000000E+020
 20
-1.0000000000000000E+020
 30
-1.0000000000000000E+020
  9
$PLIMMIN
 10
0.0
 20
0.0
  9
$PLIMMAX
 10
12.0
 20
9.0
  9
$UNITMODE
 70
     0
  9
$VISRETAIN
 70
     1
  9
$PLINEGEN
 70
     0
  9
$PSLTSCALE
 70
     0
  0
ENDSEC
  0
SECTION
  2
TABLES
  0
TABLE
  2
VPORT
 70
     3
  0
VPORT
  2
*ACTIVE
 70
     0
 10
0.0
 20
0.0
 11
1.0
 21
1.0
 12
89.058988340922596
 22
-5.3680095342016889
 13
0.0
 23
0.0
 14
0.5
 24
0.5
 15
10.0
 25
10.0
 16
0.0
 26
0.0
 36
1.0
 17
0.0
 27
0.0
 37
0.0
 40
119.0388008243014
 41
2.126099706744867
 42
50.0
 43
0.0
 44
0.0
 50
0.0
 51
0.0
 71
     0
 72
   100
 73
     1
 74
     0
 75
     0
 76
     0
 77
     0
 78
     0
  0
ENDTAB
  0
TABLE
  2
LTYPE
 70
     2
  0
LTYPE
  2
CONTINUOUS
 70
     0
  3
Solid line
 72
    65
 73
     0
 40
0.0
  0
LTYPE
  2
MITTKLEIN
 70
     0
  3
__ . __ . ___ 
 72
    65
 73
     4
 40
0.45
 49
0.25
 49
-0.1
 49
0.0
 49
-0.1
  0
ENDTAB
  0
TABLE
  2
LAYER
 70
     2
  0
LAYER
  2
0
 70
     0
 62
     7
  6
CONTINUOUS
  0
LAYER
  2
MITTELLI
 70
     0
 62
     1
  6
MITTKLEIN
  0
ENDTAB
  0
TABLE
  2
STYLE
 70
     3
  0
STYLE
  2
TXT
 70
     0
 40
0.0
 41
1.0
 50
0.0
 71
     0
 42
2.5
  3
8txt
  4

  0
STYLE
  2
TEXT50
 70
     0
 40
5.0
 41
1.0
 50
0.0
 71
     0
 42
5.0
  3
8simplex
  4

  0
STYLE
  2
SIMPLEX
 70
     0
 40
0.0
 41
0.8
 50
0.0
 71
     0
 42
8.0
  3
simplex
  4

  0
ENDTAB
  0
TABLE
  2
VIEW
 70
     0
  0
ENDTAB
  0
TABLE
  2
UCS
 70
     0
  0
ENDTAB
  0
TABLE
  2
APPID
 70
     1
  0
APPID
  2
ACAD
 70
     0
  0
ENDTAB
  0
TABLE
  2
DIMSTYLE
 70
     1
  0
DIMSTYLE
  2
STANDARD
 70
     0
  3

  4

  5

  6

  7

 40
1.0
 41
0.18
 42
0.0625
 43
0.38
 44
0.18
 45
0.0
 46
0.0
 47
0.0
 48
0.0
140
0.18
141
0.09
142
0.0
143
25.399999999999999
144
1.0
145
0.0
146
1.0
147
0.09
 71
     0
 72
     0
 73
     1
 74
     1
 75
     0
 76
     0
 77
     0
 78
     0
170
     0
171
     2
172
     0
173
     0
174
     0
175
     0
176
     0
177
     0
178
     0
  0
ENDTAB
  0
ENDSEC
  0
SECTION
  2
BLOCKS
  0
BLOCK
  8
0
  2
$MODEL_SPACE
 70
     0
 10
0.0
 20
0.0
 30
0.0
  3
$MODEL_SPACE
  1

  0
ENDBLK
  5
75
  8
0
  0
BLOCK
 67
     1
  8
0
  2
$PAPER_SPACE
 70
     0
 10
0.0
 20
0.0
 30
0.0
  3
$PAPER_SPACE
  1

  0
ENDBLK
  5
7B
 67
     1
  8
0
  0
ENDSEC
  0
SECTION
  2
ENTITIES
  0
LINE
  5
3
  8
MITTELLI
 10
214.53520144507189
 20
-0.0000000000000639
 30
0.0
 11
-36.422792966428347
 21
-0.0000000000000014
 31
0.0
  0
LINE
  5
A
  8
0
 10
208.0
 20
42.999999999999943
 30
0.0
 11
0.0
 21
42.999999999999893
 31
0.0
  0
LINE
  5
D
  8
0
 10
0.0
 20
42.999999999999893
 30
0.0
 11
-0.0000000000001137
 21
-43.0
 31
0.0
  0
LINE
  5
E
  8
0
 10
-1.500000000000113
 20
36.5
 30
0.0
 11
-1.500000000000113
 21
-36.5
 31
0.0
  0
LINE
  5
F
  8
0
 10
-1.500000000000113
 20
6.0
 30
0.0
 11
-30.50000000000011
 21
6.0
 31
0.0
  0
LINE
  5
10
  8
0
 10
-1.500000000000113
 20
-6.0
 30
0.0
 11
-30.50000000000011
 21
-6.0
 31
0.0
  0
LINE
  5
11
  8
0
 10
-30.50000000000011
 20
6.0
 30
0.0
 11
-30.50000000000011
 21
-6.0
 31
0.0
  0
LINE
  5
12
  8
0
 10
-31.50000000000011
 20
5.0
 30
0.0
 11
-31.50000000000011
 21
-5.0
 31
0.0
  0
LINE
  5
13
  8
0
 10
-30.50000000000011
 20
-6.0
 30
0.0
 11
-31.50000000000011
 21
-5.0
 31
0.0
  0
LINE
  5
14
  8
0
 10
-30.50000000000011
 20
6.0
 30
0.0
 11
-31.50000000000011
 21
5.0
 31
0.0
  0
LINE
  5
15
  8
0
 10
179.81765271085371
 20
-43.000000000000142
 30
0.0
 11
-0.0000000000001137
 21
-43.0
 31
0.0
  0
TEXT
  5
16
  8
0
 10
11.543676545095421
 20
-38.719024203175302
 30
0.0
 40
3.2000000000000002
  1
SM 88.4.18 M H200
  7
SIMPLEX
  0
LINE
  5
18
  8
0
 10
-1.500000000000113
 20
-36.5
 30
0.0
 11
-0.0000000000001137
 21
-36.5
 31
0.0
  0
LINE
  5
19
  8
0
 10
-1.500000000000113
 20
36.5
 30
0.0
 11
-0.0000000000001137
 21
36.5
 31
0.0
  0
LINE
  5
1A
  8
0
 10
7.0
 20
42.999999999999879
 30
0.0
 11
6.9999999999998863
 21
-43.0
 31
0.0
  0
LINE
  5
1B
  8
0
 10
156.9999999999998
 20
42.999999999999851
 30
0.0
 11
156.9999999999998
 21
-43.000000000000057
 31
0.0
  0
LINE
  5
1C
  8
0
 10
208.0
 20
42.999999999999943
 30
0.0
 11
208.0
 21
-43.000000000000142
 31
0.0
  0
LINE
  5
1D
  8
0
 10
205.0
 20
42.999999999999851
 30
0.0
 11
205.0
 21
-43.000000000000057
 31
0.0
  0
LINE
  5
6A
  8
0
 10
209.5
 20
38.499999999999908
 30
0.0
 11
209.5
 21
37.499999999999908
 31
0.0
  0
LINE
  5
6B
  8
0
 10
210.49999999999989
 20
37.499999999999908
 30
0.0
 11
209.5
 21
37.499999999999908
 31
0.0
  0
ARC
  5
6C
  8
0
 10
210.0
 20
36.120899191454612
 30
0.0
 40
0.5
 50
273.43363036244961
 51
0.0
  0
LINE
  5
6D
  8
0
 10
210.02994614536391
 20
35.62179676872173
 30
0.0
 11
208.0
 21
35.499999999999879
 31
0.0
  0
LINE
  5
6E
  8
0
 10
210.49999999999989
 20
36.120899191454612
 30
0.0
 11
210.49999999999989
 21
37.499999999999879
 31
0.0
  0
LINE
  5
6F
  8
0
 10
210.49999999999989
 20
38.499999999999908
 30
0.0
 11
209.5
 21
38.499999999999908
 31
0.0
  0
ARC
  5
70
  8
0
 10
210.0
 20
39.879100808545182
 30
0.0
 40
0.5
 50
0.0
 51
86.566369637550423
  0
LINE
  5
71
  8
0
 10
210.02994614536391
 20
40.378203231278057
 30
0.0
 11
208.0
 21
40.499999999999908
 31
0.0
  0
LINE
  5
72
  8
0
 10
210.49999999999989
 20
39.879100808545182
 30
0.0
 11
210.49999999999989
 21
38.499999999999908
 31
0.0
  0
ARC
  5
F6
  8
0
 10
190.2877265494636
 20
-40.650378869082012
 30
0.0
 40
12.60815275542957
 50
33.857998802880211
 51
146.14200119711711
  0
LINE
  5
F7
  8
0
 10
190.28772654946371
 20
-43.948394907271883
 30
0.0
 11
184.05315830118269
 21
-44.852432442832452
 31
0.0
  0
LINE
  5
F8
  8
0
 10
190.2877265494615
 20
-47.658817774853368
 30
0.0
 11
184.05315830118039
 21
-48.562855310413937
 31
0.0
  0
LINE
  5
F9
  8
0
 10
190.2877265494615
 20
-53.736398831964301
 30
0.0
 11
184.05315830118039
 21
-52.832361296403782
 31
0.0
  0
ARC
  5
FA
  8
0
 10
190.2877265494638
 20
-57.192137778978427
 30
0.0
 40
17.005580066645241
 50
54.200970993750452
 51
125.7990290062495
  0
ARC
  5
FB
  8
0
 10
190.39697997255189
 20
-57.160859343329072
 30
0.0
 40
14.93141625830204
 50
56.894423584626963
 51
123.1055764153712
  0
LINE
  5
FC
  8
0
 10
179.81765271085371
 20
-44.84182303628873
 30
0.0
 11
179.81765271085371
 21
-33.625916632134341
 31
0.0
  0
LINE
  5
FD
  8
0
 10
184.05315830118039
 20
-48.562855310413937
 30
0.0
 11
181.07574397438611
 21
-50.69760830341037
 31
0.0
  0
LINE
  5
FE
  8
0
 10
181.07574397438839
 20
-50.697608303408828
 30
0.0
 11
181.0757439743881
 21
-46.987185435828941
 31
0.0
  0
LINE
  5
FF
  8
0
 10
184.0531583011801
 20
-52.832361296406852
 30
0.0
 11
181.07574397438611
 21
-50.69760830341037
 31
0.0
  0
ARC
  5
100
  8
0
 10
182.1969199377441
 20
-44.88813288800965
 30
0.0
 40
2.3797178696897441
 50
141.27305377249331
 51
241.89179587316031
  0
LINE
  5
101
  8
0
 10
184.05315830118269
 20
-44.852432442832452
 30
0.0
 11
184.05315830118269
 21
-48.56285531041361
 31
0.0
  0
LINE
  5
102
  8
0
 10
182.2416869162561
 20
-46.151225132146394
 30
0.0
 11
182.2416869162561
 21
-44.653326147505801
 31
0.0
  0
LINE
  5
103
  8
0
 10
184.05315830118269
 20
-44.852432442832452
 30
0.0
 11
181.0757439743881
 21
-46.987185435828941
 31
0.0
  0
LINE
  5
104
  8
0
 10
200.75780038807369
 20
-33.625916632134739
 30
0.0
 11
200.75780038807369
 21
-44.653326147505801
 31
0.0
  0
LINE
  5
105
  8
0
 10
190.28772654946371
 20
-43.948394907271883
 30
0.0
 11
196.52229479774459
 21
-44.852432442832452
 31
0.0
  0
LINE
  5
106
  8
0
 10
190.28772654946579
 20
-47.658817774853368
 30
0.0
 11
196.52229479774701
 21
-48.562855310413937
 31
0.0
  0
ARC
  5
107
  8
0
 10
193.65113736144141
 20
-50.764735127133299
 30
0.0
 40
0.4243268062755158
 50
307.16070302427562
 51
57.767753201270999
  0
LINE
  5
108
  8
0
 10
190.28772654946579
 20
-53.736398831964301
 30
0.0
 11
196.52229479774701
 21
-52.832361296403782
 31
0.0
  0
ARC
  5
109
  8
0
 10
190.28772654946371
 20
-58.147022374327328
 30
0.0
 40
8.5330334904247067
 50
65.122103603562763
 51
114.87789639643719
  0
ARC
  5
10A
  8
0
 10
190.28772654946371
 20
-43.225102381545241
 30
0.0
 40
8.6696087345522432
 50
245.3219483027552
 51
294.6780516972446
  0
ARC
  5
10B
  8
0
 10
186.92431573748601
 20
-50.764735127133299
 30
0.0
 40
0.4243268062755158
 50
122.23224679872889
 51
232.8392969757243
  0
LINE
  5
10C
  8
0
 10
190.28772654946371
 20
-43.948394907271883
 30
0.0
 11
190.28772654946371
 21
-47.65881777485307
 31
0.0
  0
LINE
  5
10D
  8
0
 10
199.4997091245414
 20
-50.6976083034073
 30
0.0
 11
199.49970912453909
 21
-46.987185435828941
 31
0.0
  0
LINE
  5
10E
  8
0
 10
196.52229479774701
 20
-48.562855310413937
 30
0.0
 11
199.4997091245414
 21
-50.69760830341037
 31
0.0
  0
LINE
  5
10F
  8
0
 10
196.52229479774701
 20
-52.832361296403782
 30
0.0
 11
199.4997091245414
 21
-50.6976083034073
 31
0.0
  0
LINE
  5
110
  8
0
 10
196.52229479774459
 20
-44.852432442832452
 30
0.0
 11
199.49970912453909
 21
-46.987185435828941
 31
0.0
  0
LINE
  5
111
  8
0
 10
196.52229479774459
 20
-44.852432442832452
 30
0.0
 11
196.52229479774459
 21
-48.56285531041361
 31
0.0
  0
LINE
  5
112
  8
0
 10
198.55227302884799
 20
-46.151225132146394
 30
0.0
 11
198.55227302884799
 21
-44.653326147505801
 31
0.0
  0
ARC
  5
113
  8
0
 10
198.378532953101
 20
-44.88813284536279
 30
0.0
 40
2.3797180053420761
 50
298.10820806217282
 51
38.726942292199382
  0
LINE
  5
114
  8
0
 10
208.0
 20
-43.000000000000142
 30
0.0
 11
200.75780038807369
 21
-43.000000000000142
 31
0.0
  0
LINE
  5
115
  8
0
 10
210.49999999999989
 20
-36.120899191454782
 30
0.0
 11
210.49999999999989
 21
-37.50000000000005
 31
0.0
  0
LINE
  5
116
  8
0
 10
208.0
 20
-43.000000000000128
 30
0.0
 11
205.0
 21
-43.000000000000128
 31
0.0
  0
LINE
  5
117
  8
0
 10
210.49999999999989
 20
-37.500000000000078
 30
0.0
 11
209.5
 21
-37.500000000000078
 31
0.0
  0
LINE
  5
118
  8
0
 10
210.49999999999989
 20
-38.500000000000078
 30
0.0
 11
209.5
 21
-38.500000000000078
 31
0.0
  0
LINE
  5
119
  8
0
 10
210.02994614536391
 20
-40.378203231278242
 30
0.0
 11
208.0
 21
-40.500000000000078
 31
0.0
  0
LINE
  5
11A
  8
0
 10
209.5
 20
-38.500000000000078
 30
0.0
 11
209.5
 21
-37.500000000000078
 31
0.0
  0
ARC
  5
11B
  8
0
 10
210.0
 20
-39.87910080854536
 30
0.0
 40
0.5
 50
273.43363036244961
 51
0.0
  0
LINE
  5
11C
  8
0
 10
210.49999999999989
 20
-39.87910080854536
 30
0.0
 11
210.49999999999989
 21
-38.500000000000078
 31
0.0
  0
LINE
  5
11D
  8
0
 10
210.02994614536391
 20
-35.6217967687219
 30
0.0
 11
208.0
 21
-35.500000000000057
 31
0.0
  0
ARC
  5
11E
  8
0
 10
210.0
 20
-36.120899191454782
 30
0.0
 40
0.5
 50
0.0
 51
86.566369637550423
  0
ENDSEC
  0
EOF
