  0
SECTION
  2
HEADER
  9
$ACADVER
  1
AC1015
  9
$ACADMAINTVER
 70
     6
  9
$DWGCODEPAGE
  3
ANSI_1252
  9
$INSBASE
 10
0.0
 20
0.0
 30
0.0
  9
$EXTMIN
 10
-55.29228144915283
 20
-64.4224881236845
 30
-0.0000000000000057
  9
$EXTMAX
 10
48.32609012104729
 20
47.10956582500012
 30
0.0000000000000104
  9
$LIMMIN
 10
0.0
 20
0.0
  9
$LIMMAX
 10
410.0
 20
287.0
  9
$ORTHOMODE
 70
     1
  9
$REGENMODE
 70
     1
  9
$FILLMODE
 70
     1
  9
$QTEXTMODE
 70
     0
  9
$MIRRTEXT
 70
     1
  9
$LTSCALE
 40
25.0
  9
$ATTMODE
 70
     1
  9
$TEXTSIZE
 40
5.0
  9
$TRACEWID
 40
0.6
  9
$TEXTSTYLE
  7
TEXT50
  9
$CLAYER
  8
0
  9
$CELTYPE
  6
ByLayer
  9
$CECOLOR
 62
   256
  9
$CELTSCALE
 40
1.0
  9
$DISPSILH
 70
     0
  9
$DIMSCALE
 40
1.0
  9
$DIMASZ
 40
3.5
  9
$DIMEXO
 40
0.1
  9
$DIMDLI
 40
7.0
  9
$DIMRND
 40
0.0
  9
$DIMDLE
 40
0.0
  9
$DIMEXE
 40
1.8
  9
$DIMTP
 40
0.0
  9
$DIMTM
 40
0.0
  9
$DIMTXT
 40
3.5
  9
$DIMCEN
 40
1.5
  9
$DIMTSZ
 40
0.0
  9
$DIMTOL
 70
     0
  9
$DIMLIM
 70
     0
  9
$DIMTIH
 70
     0
  9
$DIMTOH
 70
     0
  9
$DIMSE1
 70
     0
  9
$DIMSE2
 70
     0
  9
$DIMTAD
 70
     1
  9
$DIMZIN
 70
     0
  9
$DIMBLK
  1

  9
$DIMASO
 70
     0
  9
$DIMSHO
 70
     1
  9
$DIMPOST
  1

  9
$DIMAPOST
  1

  9
$DIMALT
 70
     0
  9
$DIMALTD
 70
     2
  9
$DIMALTF
 40
25.4
  9
$DIMLFAC
 40
1.0
  9
$DIMTOFL
 70
     0
  9
$DIMTVP
 40
0.0
  9
$DIMTIX
 70
     0
  9
$DIMSOXD
 70
     0
  9
$DIMSAH
 70
     0
  9
$DIMBLK1
  1

  9
$DIMBLK2
  1

  9
$DIMSTYLE
  2
STANDARD
  9
$DIMCLRD
 70
     0
  9
$DIMCLRE
 70
     0
  9
$DIMCLRT
 70
     0
  9
$DIMTFAC
 40
1.0
  9
$DIMGAP
 40
0.09
  9
$DIMJUST
 70
     0
  9
$DIMSD1
 70
     0
  9
$DIMSD2
 70
     0
  9
$DIMTOLJ
 70
     1
  9
$DIMTZIN
 70
     0
  9
$DIMALTZ
 70
     0
  9
$DIMALTTZ
 70
     0
  9
$DIMUPT
 70
     0
  9
$DIMDEC
 70
     4
  9
$DIMTDEC
 70
     4
  9
$DIMALTU
 70
     2
  9
$DIMALTTD
 70
     2
  9
$DIMTXSTY
  7
STANDARD
  9
$DIMAUNIT
 70
     0
  9
$DIMADEC
 70
     0
  9
$DIMALTRND
 40
0.0
  9
$DIMAZIN
 70
     0
  9
$DIMDSEP
 70
    46
  9
$DIMATFIT
 70
     3
  9
$DIMFRAC
 70
     0
  9
$DIMLDRBLK
  1

  9
$DIMLUNIT
 70
     2
  9
$DIMLWD
 70
    -2
  9
$DIMLWE
 70
    -2
  9
$DIMTMOVE
 70
     0
  9
$LUNITS
 70
     2
  9
$LUPREC
 70
     1
  9
$SKETCHINC
 40
0.1
  9
$FILLETRAD
 40
0.0
  9
$AUNITS
 70
     0
  9
$AUPREC
 70
     0
  9
$MENU
  1
acad
  9
$ELEVATION
 40
0.0
  9
$PELEVATION
 40
0.0
  9
$THICKNESS
 40
0.0
  9
$LIMCHECK
 70
     0
  9
$CHAMFERA
 40
4.0
  9
$CHAMFERB
 40
4.0
  9
$CHAMFERC
 40
0.0
  9
$CHAMFERD
 40
0.0
  9
$SKPOLY
 70
     0
  9
$TDCREATE
 40
2449016.483152083
  9
$TDUCREATE
 40
2449016.441485416
  9
$TDUPDATE
 40
2454522.506416585
  9
$TDUUPDATE
 40
2454522.464749918
  9
$TDINDWG
 40
0.3306669560
  9
$TDUSRTIMER
 40
0.3306652199
  9
$USRTIMER
 70
     1
  9
$ANGBASE
 50
0.0
  9
$ANGDIR
 70
     0
  9
$PDMODE
 70
     0
  9
$PDSIZE
 40
0.0
  9
$PLINEWID
 40
0.0
  9
$SPLFRAME
 70
     0
  9
$SPLINETYPE
 70
     6
  9
$SPLINESEGS
 70
     8
  9
$HANDSEED
  5
203
  9
$SURFTAB1
 70
     6
  9
$SURFTAB2
 70
     6
  9
$SURFTYPE
 70
     6
  9
$SURFU
 70
     6
  9
$SURFV
 70
     6
  9
$UCSBASE
  2

  9
$UCSNAME
  2

  9
$UCSORG
 10
0.0
 20
0.0
 30
0.0
  9
$UCSXDIR
 10
1.0
 20
0.0
 30
0.0
  9
$UCSYDIR
 10
0.0
 20
1.0
 30
0.0
  9
$UCSORTHOREF
  2

  9
$UCSORTHOVIEW
 70
     0
  9
$UCSORGTOP
 10
0.0
 20
0.0
 30
0.0
  9
$UCSORGBOTTOM
 10
0.0
 20
0.0
 30
0.0
  9
$UCSORGLEFT
 10
0.0
 20
0.0
 30
0.0
  9
$UCSORGRIGHT
 10
0.0
 20
0.0
 30
0.0
  9
$UCSORGFRONT
 10
0.0
 20
0.0
 30
0.0
  9
$UCSORGBACK
 10
0.0
 20
0.0
 30
0.0
  9
$PUCSBASE
  2

  9
$PUCSNAME
  2

  9
$PUCSORG
 10
0.0
 20
0.0
 30
0.0
  9
$PUCSXDIR
 10
1.0
 20
0.0
 30
0.0
  9
$PUCSYDIR
 10
0.0
 20
1.0
 30
0.0
  9
$PUCSORTHOREF
  2

  9
$PUCSORTHOVIEW
 70
     0
  9
$PUCSORGTOP
 10
0.0
 20
0.0
 30
0.0
  9
$PUCSORGBOTTOM
 10
0.0
 20
0.0
 30
0.0
  9
$PUCSORGLEFT
 10
0.0
 20
0.0
 30
0.0
  9
$PUCSORGRIGHT
 10
0.0
 20
0.0
 30
0.0
  9
$PUCSORGFRONT
 10
0.0
 20
0.0
 30
0.0
  9
$PUCSORGBACK
 10
0.0
 20
0.0
 30
0.0
  9
$USERI1
 70
     0
  9
$USERI2
 70
     0
  9
$USERI3
 70
     0
  9
$USERI4
 70
     0
  9
$USERI5
 70
     0
  9
$USERR1
 40
0.0
  9
$USERR2
 40
0.0
  9
$USERR3
 40
0.0
  9
$USERR4
 40
0.0
  9
$USERR5
 40
0.0
  9
$WORLDVIEW
 70
     1
  9
$SHADEDGE
 70
     3
  9
$SHADEDIF
 70
    70
  9
$TILEMODE
 70
     1
  9
$MAXACTVP
 70
    64
  9
$PINSBASE
 10
0.0
 20
0.0
 30
0.0
  9
$PLIMCHECK
 70
     0
  9
$PEXTMIN
 10
1.000000000000000E+20
 20
1.000000000000000E+20
 30
1.000000000000000E+20
  9
$PEXTMAX
 10
-1.000000000000000E+20
 20
-1.000000000000000E+20
 30
-1.000000000000000E+20
  9
$PLIMMIN
 10
0.0
 20
0.0
  9
$PLIMMAX
 10
12.0
 20
9.0
  9
$UNITMODE
 70
     0
  9
$VISRETAIN
 70
     1
  9
$PLINEGEN
 70
     0
  9
$PSLTSCALE
 70
     0
  9
$TREEDEPTH
 70
  3020
  9
$CMLSTYLE
  2
Standard
  9
$CMLJUST
 70
     0
  9
$CMLSCALE
 40
1.0
  9
$PROXYGRAPHICS
 70
     1
  9
$MEASUREMENT
 70
     0
  9
$CELWEIGHT
370
    -1
  9
$ENDCAPS
280
     0
  9
$JOINSTYLE
280
     0
  9
$LWDISPLAY
290
     0
  9
$INSUNITS
 70
     0
  9
$HYPERLINKBASE
  1

  9
$STYLESHEET
  1

  9
$XEDIT
290
     1
  9
$CEPSNTYPE
380
     0
  9
$PSTYLEMODE
290
     1
  9
$FINGERPRINTGUID
  2
{D6293E35-CB2F-4065-81DA-AE5218E338A4}
  9
$VERSIONGUID
  2
{A2756A94-19CA-4F1D-86C4-3EED38E26E49}
  9
$EXTNAMES
290
     1
  9
$PSVPSCALE
 40
0.0
  9
$OLESTARTUP
290
     0
  0
ENDSEC
  0
SECTION
  2
CLASSES
  0
CLASS
  1
ACDBDICTIONARYWDFLT
  2
AcDbDictionaryWithDefault
  3
AutoCAD 2000
 90
        0
280
     0
281
     0
  0
CLASS
  1
ACDBPLACEHOLDER
  2
AcDbPlaceHolder
  3
AutoCAD 2000
 90
        0
280
     0
281
     0
  0
CLASS
  1
LAYOUT
  2
AcDbLayout
  3
AutoCAD 2000
 90
        0
280
     0
281
     0
  0
ENDSEC
  0
SECTION
  2
TABLES
  0
TABLE
  2
VPORT
  5
E9
330
0
100
AcDbSymbolTable
 70
     5
  0
VPORT
  5
202
330
E9
100
AcDbSymbolTableRecord
100
AcDbViewportTableRecord
  2
*Active
 70
     0
 10
0.0
 20
0.0
 11
1.0
 21
1.0
 12
-3.483095664052761
 22
-8.656461149342192
 13
0.0
 23
0.0
 14
0.5
 24
0.5
 15
10.0
 25
10.0
 16
0.0
 26
0.0
 36
1.0
 17
0.0
 27
0.0
 37
0.0
 40
112.7805470899012
 41
1.773831775700934
 42
50.0
 43
0.0
 44
0.0
 50
0.0
 51
0.0
 71
     0
 72
   100
 73
     1
 74
     0
 75
     0
 76
     0
 77
     0
 78
     0
281
     0
 65
     0
110
0.0
120
0.0
130
0.0
111
1.0
121
0.0
131
0.0
112
0.0
122
1.0
132
0.0
 79
     0
146
0.0
  0
ENDTAB
  0
TABLE
  2
LTYPE
  5
E6
330
0
100
AcDbSymbolTable
 70
     3
  0
LTYPE
  5
F4
330
E6
100
AcDbSymbolTableRecord
100
AcDbLinetypeTableRecord
  2
ByBlock
 70
     0
  3

 72
    65
 73
     0
 40
0.0
  0
LTYPE
  5
F5
330
E6
100
AcDbSymbolTableRecord
100
AcDbLinetypeTableRecord
  2
ByLayer
 70
     0
  3

 72
    65
 73
     0
 40
0.0
  0
LTYPE
  5
F6
330
E6
100
AcDbSymbolTableRecord
100
AcDbLinetypeTableRecord
  2
CONTINUOUS
 70
     0
  3
Solid line
 72
    65
 73
     0
 40
0.0
  0
LTYPE
  5
105
330
E6
100
AcDbSymbolTableRecord
100
AcDbLinetypeTableRecord
  2
MITTKLEIN
 70
     0
  3
__ . __ . ___ 
 72
    65
 73
     4
 40
0.45
 49
0.25
 74
     0
 49
-0.1
 74
     0
 49
0.0
 74
     0
 49
-0.1
 74
     0
  0
LTYPE
  5
14F
330
E6
100
AcDbSymbolTableRecord
100
AcDbLinetypeTableRecord
  2
STRICHPUNKT
 70
     0
  3
__ . __ . __ . __ . __ . __ . __ . __ . __ . __
 72
    65
 73
     4
 40
1.0
 49
0.5
 74
     0
 49
-0.25
 74
     0
 49
0.0
 74
     0
 49
-0.25
 74
     0
  0
ENDTAB
  0
TABLE
  2
LAYER
  5
E3
330
0
100
AcDbSymbolTable
 70
     3
  0
LAYER
  5
F1
330
E3
100
AcDbSymbolTableRecord
100
AcDbLayerTableRecord
  2
0
 70
     0
 62
     7
  6
CONTINUOUS
370
    -3
390
F0
  0
LAYER
  5
106
330
E3
100
AcDbSymbolTableRecord
100
AcDbLayerTableRecord
  2
MITTELLI
 70
     0
 62
     1
  6
MITTKLEIN
370
    -3
390
F0
  0
LAYER
  5
150
330
E3
100
AcDbSymbolTableRecord
100
AcDbLayerTableRecord
  2
KON35
 70
     0
 62
     2
  6
CONTINUOUS
370
    -3
390
F0
  0
ENDTAB
  0
TABLE
  2
STYLE
  5
E4
330
0
100
AcDbSymbolTable
 70
     4
  0
STYLE
  5
F2
330
E4
100
AcDbSymbolTableRecord
100
AcDbTextStyleTableRecord
  2
STANDARD
 70
     0
 40
0.0
 41
1.0
 50
0.0
 71
     0
 42
0.2
  3
txt
  4

  0
STYLE
  5
103
330
E4
100
AcDbSymbolTableRecord
100
AcDbTextStyleTableRecord
  2
TEXT50
 70
     0
 40
5.0
 41
1.0
 50
0.0
 71
     0
 42
5.0
  3
8simplex
  4

  0
STYLE
  5
107
330
E4
100
AcDbSymbolTableRecord
100
AcDbTextStyleTableRecord
  2
TXT
 70
     0
 40
0.0
 41
1.0
 50
0.0
 71
     0
 42
2.5
  3
8txt
  4

  0
STYLE
  5
151
330
E4
100
AcDbSymbolTableRecord
100
AcDbTextStyleTableRecord
  2
SIMPLEX
 70
     0
 40
0.0
 41
0.7
 50
0.0
 71
     0
 42
10.0
  3
C:\ACAD\FONTS\8SIMPLEX
  4

  0
ENDTAB
  0
TABLE
  2
VIEW
  5
E7
330
0
100
AcDbSymbolTable
 70
     0
  0
ENDTAB
  0
TABLE
  2
UCS
  5
E8
330
0
100
AcDbSymbolTable
 70
     0
  0
ENDTAB
  0
TABLE
  2
APPID
  5
EA
330
0
100
AcDbSymbolTable
 70
     1
  0
APPID
  5
F3
330
EA
100
AcDbSymbolTableRecord
100
AcDbRegAppTableRecord
  2
ACAD
 70
     0
  0
ENDTAB
  0
TABLE
  2
DIMSTYLE
  5
EB
330
0
100
AcDbSymbolTable
 70
     2
100
AcDbDimStyleTable
 71
     0
  0
DIMSTYLE
105
108
330
EB
100
AcDbSymbolTableRecord
100
AcDbDimStyleTableRecord
  2
STANDARD
 70
     0
271
     1
272
     1
279
     2
340
103
  0
DIMSTYLE
105
152
330
EB
100
AcDbSymbolTableRecord
100
AcDbDimStyleTableRecord
  2
BEMASS
 70
     0
 41
3.5
 42
0.1
 43
10.0
 44
1.8
 73
     0
 74
     0
 77
     1
 78
     8
140
3.5
141
-1.5
176
   256
177
   256
178
   256
271
     2
272
     2
279
     2
284
     8
285
     8
286
     8
340
F2
  0
ENDTAB
  0
TABLE
  2
BLOCK_RECORD
  5
E2
330
0
100
AcDbSymbolTable
 70
     4
  0
BLOCK_RECORD
  5
FF
330
E2
100
AcDbSymbolTableRecord
100
AcDbBlockTableRecord
  2
*Model_Space
340
102
  0
BLOCK_RECORD
  5
FB
330
E2
100
AcDbSymbolTableRecord
100
AcDbBlockTableRecord
  2
*Paper_Space
340
FE
  0
BLOCK_RECORD
  5
10B
330
E2
100
AcDbSymbolTableRecord
100
AcDbBlockTableRecord
  2
$MODEL_SPACE
340
0
102
{BLKREFS
331
14E
102
}
  0
BLOCK_RECORD
  5
10E
330
E2
100
AcDbSymbolTableRecord
100
AcDbBlockTableRecord
  2
$PAPER_SPACE
340
0
  0
ENDTAB
  0
ENDSEC
  0
SECTION
  2
BLOCKS
  0
BLOCK
  5
100
330
FF
100
AcDbEntity
  8
0
100
AcDbBlockBegin
  2
*Model_Space
 70
     0
 10
0.0
 20
0.0
 30
0.0
  3
*Model_Space
  1

  0
ENDBLK
  5
101
330
FF
100
AcDbEntity
  8
0
100
AcDbBlockEnd
  0
BLOCK
  5
FC
330
FB
100
AcDbEntity
 67
     1
  8
0
100
AcDbBlockBegin
  2
*Paper_Space
 70
     0
 10
0.0
 20
0.0
 30
0.0
  3
*Paper_Space
  1

  0
ENDBLK
  5
FD
330
FB
100
AcDbEntity
 67
     1
  8
0
100
AcDbBlockEnd
  0
BLOCK
  5
10C
330
10B
100
AcDbEntity
  8
0
100
AcDbBlockBegin
  2
$MODEL_SPACE
 70
     0
 10
0.0
 20
0.0
 30
0.0
  3
$MODEL_SPACE
  1

  0
ENDBLK
  5
10D
330
10B
100
AcDbEntity
  8
0
100
AcDbBlockEnd
  0
BLOCK
  5
10F
330
10E
100
AcDbEntity
  8
0
100
AcDbBlockBegin
  2
$PAPER_SPACE
 70
     0
 10
0.0
 20
0.0
 30
0.0
  3
$PAPER_SPACE
  1

  0
ENDBLK
  5
110
330
10E
100
AcDbEntity
  8
0
100
AcDbBlockEnd
  0
ENDSEC
  0
SECTION
  2
ENTITIES
  0
LINE
  5
111
330
FF
100
AcDbEntity
  8
MITTELLI
100
AcDbLine
 10
-0.0000000000001137
 20
-52.5213381104128
 30
0.0
 11
-0.0000000000001137
 21
47.09114070924725
 31
0.0
  0
LINE
  5
115
330
FF
100
AcDbEntity
  8
0
100
AcDbLine
 10
-43.00000000000009
 20
-39.0
 30
0.0
 11
-43.0000000000001
 21
39.00000000000005
 31
0.0
  0
LINE
  5
116
330
FF
100
AcDbEntity
  8
0
100
AcDbLine
 10
42.99999999999967
 20
38.99999999999999
 30
0.0
 11
43.00000000000002
 21
-39.0
 31
0.0
  0
LINE
  5
118
330
FF
100
AcDbEntity
  8
0
100
AcDbLine
 10
39.00000000000002
 20
-43.0
 30
0.0
 11
-39.0000000000001
 21
-43.0
 31
0.0
  0
ARC
  5
126
330
FF
100
AcDbEntity
  8
0
100
AcDbCircle
 10
-26.87005768508891
 20
-26.87005768508877
 30
0.0
 40
4.75
100
AcDbArc
 50
113.1574793117487
 51
336.842520688251
  0
LINE
  5
127
330
FF
100
AcDbEntity
  8
0
100
AcDbLine
 10
-30.61860302368944
 20
-29.78740371264157
 30
0.0
 11
-26.62266884896582
 21
-24.96965164671515
 31
0.0
  0
CIRCLE
  5
128
330
FF
100
AcDbEntity
  8
0
100
AcDbCircle
 10
-35.0
 20
-35.0
 30
0.0
 40
3.299999999999998
  0
LINE
  5
129
330
FF
100
AcDbEntity
  8
0
100
AcDbLine
 10
-29.23892129852436
 20
-30.98721510022201
 30
0.0
 11
-25.33261802286896
 21
-26.27752773963742
 31
0.0
  0
ARC
  5
13A
330
FF
100
AcDbEntity
  8
0
100
AcDbCircle
 10
26.87005768508868
 20
-26.87005768508878
 30
0.0
 40
4.75
100
AcDbArc
 50
203.1574793117506
 51
66.84252068824908
  0
LINE
  5
13B
330
FF
100
AcDbEntity
  8
0
100
AcDbLine
 10
30.98721510022193
 20
-29.23892129852423
 30
0.0
 11
26.27752773963745
 21
-25.33261802286894
 31
0.0
  0
LINE
  5
13C
330
FF
100
AcDbEntity
  8
0
100
AcDbLine
 10
29.78740371264148
 20
-30.61860302368932
 30
0.0
 11
24.96965164671518
 21
-26.6226688489658
 31
0.0
  0
CIRCLE
  5
13D
330
FF
100
AcDbEntity
  8
0
100
AcDbCircle
 10
34.99999999999988
 20
-35.0
 30
0.0
 40
3.299999999999998
  0
LINE
  5
13E
330
FF
100
AcDbEntity
  8
MITTELLI
100
AcDbLine
 10
48.31753349850629
 20
0.0
 30
0.0
 11
-55.25828980434903
 21
0.0
 31
0.0
  0
LINE
  5
140
330
FF
100
AcDbEntity
  8
0
100
AcDbLine
 10
-39.0000000000001
 20
43.00000000000006
 30
0.0
 11
38.99999999999966
 21
42.99999999999999
 31
0.0
  0
LINE
  5
141
330
FF
100
AcDbEntity
  8
0
100
AcDbLine
 10
-29.78740371264171
 20
30.61860302368932
 30
0.0
 11
-24.96965164671529
 21
26.62266884896569
 31
0.0
  0
ARC
  5
142
330
FF
100
AcDbEntity
  8
0
100
AcDbCircle
 10
-26.87005768508891
 20
26.87005768508878
 30
0.0
 40
4.75
100
AcDbArc
 50
23.15747931174889
 51
246.8425206882513
  0
LINE
  5
143
330
FF
100
AcDbEntity
  8
0
100
AcDbLine
 10
-30.98721510022214
 20
29.23892129852423
 30
0.0
 11
-26.27752773963754
 21
25.33261802286884
 31
0.0
  0
CIRCLE
  5
144
330
FF
100
AcDbEntity
  8
0
100
AcDbCircle
 10
-35.0
 20
35.0
 30
0.0
 40
3.299999999999998
  0
ARC
  5
145
330
FF
100
AcDbEntity
  8
0
100
AcDbCircle
 10
26.87005768508868
 20
26.87005768508873
 30
0.0
 40
4.75
100
AcDbArc
 50
293.1574793117512
 51
156.8425206882488
  0
LINE
  5
146
330
FF
100
AcDbEntity
  8
0
100
AcDbLine
 10
30.61860302368922
 20
29.78740371264155
 30
0.0
 11
26.62266884896571
 21
24.96965164671526
 31
0.0
  0
LINE
  5
147
330
FF
100
AcDbEntity
  8
0
100
AcDbLine
 10
29.23892129852412
 20
30.98721510022198
 30
0.0
 11
25.33261802286885
 21
26.27752773963752
 31
0.0
  0
CIRCLE
  5
148
330
FF
100
AcDbEntity
  8
0
100
AcDbCircle
 10
34.99999999999988
 20
35.0
 30
0.0
 40
3.299999999999998
  0
LINE
  5
14A
330
FF
100
AcDbEntity
  8
0
100
AcDbLine
 10
-39.0000000000001
 20
-43.0
 30
0.0
 11
-43.00000000000009
 21
-39.0
 31
0.0
  0
LINE
  5
14B
330
FF
100
AcDbEntity
  8
0
100
AcDbLine
 10
-43.0000000000001
 20
39.00000000000005
 30
0.0
 11
-39.0000000000001
 21
43.00000000000006
 31
0.0
  0
LINE
  5
14C
330
FF
100
AcDbEntity
  8
0
100
AcDbLine
 10
38.99999999999966
 20
42.99999999999999
 30
0.0
 11
42.99999999999967
 21
38.99999999999999
 31
0.0
  0
LINE
  5
14D
330
FF
100
AcDbEntity
  8
0
100
AcDbLine
 10
43.00000000000002
 20
-39.0
 30
0.0
 11
39.00000000000002
 21
-43.0
 31
0.0
  0
INSERT
  5
14E
330
FF
100
AcDbEntity
  8
0
100
AcDbBlockReference
  2
$MODEL_SPACE
 10
-89.31425797437896
 20
-17.81298554813292
 30
0.0
  0
CIRCLE
  5
16F
330
FF
100
AcDbEntity
  8
0
100
AcDbCircle
 10
0.0
 20
0.0
 30
0.0
 40
36.5
  0
CIRCLE
  5
172
330
FF
100
AcDbEntity
  8
0
100
AcDbCircle
 10
0.0
 20
0.0
 30
0.0
 40
8.5
  0
CIRCLE
  5
173
330
FF
100
AcDbEntity
  8
0
100
AcDbCircle
 10
0.0
 20
0.0
 30
0.0
 40
12.5
  0
CIRCLE
  5
175
330
FF
100
AcDbEntity
  8
0
100
AcDbCircle
 10
-18.7383297014435
 20
18.73832970144351
 30
0.0
 40
3.75
  0
LINE
  5
176
330
FF
100
AcDbEntity
  8
0
100
AcDbLine
 10
-21.70773542582141
 20
21.02855450351681
 30
0.0
 11
-16.4481048993702
 21
15.7689239770656
 31
0.0
  0
LINE
  5
177
330
FF
100
AcDbEntity
  8
0
100
AcDbLine
 10
-21.02855450351686
 20
21.70773542582137
 30
0.0
 11
-15.7689239770656
 21
16.44810489937021
 31
0.0
  0
CIRCLE
  5
178
330
FF
100
AcDbEntity
  8
0
100
AcDbCircle
 10
-18.73832970144351
 20
-18.7383297014435
 30
0.0
 40
3.75
  0
LINE
  5
179
330
FF
100
AcDbEntity
  8
0
100
AcDbLine
 10
-21.70773542582137
 20
-21.02855450351686
 30
0.0
 11
-16.44810489937021
 21
-15.76892397706559
 31
0.0
  0
LINE
  5
17A
330
FF
100
AcDbEntity
  8
0
100
AcDbLine
 10
-21.02855450351681
 20
-21.70773542582141
 30
0.0
 11
-15.7689239770656
 21
-16.4481048993702
 31
0.0
  0
CIRCLE
  5
17B
330
FF
100
AcDbEntity
  8
0
100
AcDbCircle
 10
18.7383297014435
 20
-18.73832970144351
 30
0.0
 40
3.75
  0
LINE
  5
17C
330
FF
100
AcDbEntity
  8
0
100
AcDbLine
 10
21.02855450351686
 20
-21.70773542582138
 30
0.0
 11
15.76892397706559
 21
-16.44810489937021
 31
0.0
  0
LINE
  5
17D
330
FF
100
AcDbEntity
  8
0
100
AcDbLine
 10
21.70773542582141
 20
-21.02855450351682
 30
0.0
 11
16.4481048993702
 21
-15.7689239770656
 31
0.0
  0
CIRCLE
  5
17E
330
FF
100
AcDbEntity
  8
0
100
AcDbCircle
 10
18.73832970144351
 20
18.7383297014435
 30
0.0
 40
3.75
  0
LINE
  5
17F
330
FF
100
AcDbEntity
  8
0
100
AcDbLine
 10
21.70773542582138
 20
21.02855450351686
 30
0.0
 11
16.44810489937021
 21
15.76892397706559
 31
0.0
  0
LINE
  5
180
330
FF
100
AcDbEntity
  8
0
100
AcDbLine
 10
21.02855450351682
 20
21.70773542582141
 30
0.0
 11
15.7689239770656
 21
16.4481048993702
 31
0.0
  0
CIRCLE
  5
184
330
FF
100
AcDbEntity
  8
0
100
AcDbCircle
 10
-0.0000000000001137
 20
0.0
 30
0.0
 40
17.4
  0
LINE
  5
1EE
330
FF
100
AcDbEntity
  8
0
100
AcDbLine
 10
-11.00000000000018
 20
-57.94117647058818
 30
0.0
 11
-11.00000000000018
 21
-45.0
 31
0.0
  0
LINE
  5
1EF
330
FF
100
AcDbEntity
  8
0
100
AcDbLine
 10
10.99999999999981
 20
-45.0
 30
0.0
 11
10.99999999999981
 21
-57.94117647058818
 31
0.0
  0
ARC
  5
1F0
330
FF
100
AcDbEntity
  8
0
100
AcDbCircle
 10
-0.0000000000002451
 20
-50.21693146169008
 30
0.0
 40
14.19483324419222
100
AcDbArc
 50
247.2350767444408
 51
292.7649232555592
  0
LINE
  5
1F1
330
FF
100
AcDbEntity
  8
0
100
AcDbLine
 10
5.492706975944467
 20
-64.41176470588231
 30
0.0
 11
-5.492706975944844
 21
-64.41176470588231
 31
0.0
  0
LINE
  5
1F2
330
FF
100
AcDbEntity
  8
0
100
AcDbLine
 10
10.99999999999981
 20
-57.94117647058818
 30
0.0
 11
-11.00000000000018
 21
-57.94117647058818
 31
0.0
  0
LINE
  5
1F3
330
FF
100
AcDbEntity
  8
0
100
AcDbLine
 10
10.99999999999981
 20
-61.17647058823525
 30
0.0
 11
-11.00000000000018
 21
-61.17647058823525
 31
0.0
  0
ARC
  5
1F4
330
FF
100
AcDbEntity
  8
0
100
AcDbCircle
 10
-8.246353487972344
 20
-60.43025363876427
 30
0.0
 40
3.981511067118523
100
AcDbArc
 50
226.2424368346334
 51
313.7575631653641
  0
LINE
  5
1F5
330
FF
100
AcDbEntity
  8
0
100
AcDbLine
 10
-5.492706975944844
 20
-64.41176470588231
 30
0.0
 11
-8.246353487972458
 21
-64.41176470588231
 31
0.0
  0
LINE
  5
1F6
330
FF
100
AcDbEntity
  8
0
100
AcDbLine
 10
-11.00000000000018
 20
-63.30599028602188
 30
0.0
 11
-11.00000000000018
 21
-61.17647058823525
 31
0.0
  0
LINE
  5
1F7
330
FF
100
AcDbEntity
  8
0
100
AcDbLine
 10
-8.819454888361423
 20
-61.17647058823525
 30
0.0
 11
-8.819454888361423
 21
-57.94117647058818
 31
0.0
  0
ARC
  5
1F8
330
FF
100
AcDbEntity
  8
0
100
AcDbCircle
 10
8.246353487971628
 20
-60.43025363876324
 30
0.0
 40
3.981511067119256
100
AcDbArc
 50
226.2424368346447
 51
313.757563165357
  0
LINE
  5
1F9
330
FF
100
AcDbEntity
  8
0
100
AcDbLine
 10
8.246353487971628
 20
-64.41176470588231
 30
0.0
 11
5.492706975944467
 21
-64.41176470588231
 31
0.0
  0
LINE
  5
1FA
330
FF
100
AcDbEntity
  8
0
100
AcDbLine
 10
8.819454888361047
 20
-61.17647058823525
 30
0.0
 11
8.819454888361047
 21
-57.94117647058818
 31
0.0
  0
LINE
  5
1FB
330
FF
100
AcDbEntity
  8
0
100
AcDbLine
 10
5.492706975944467
 20
-61.17647058823525
 30
0.0
 11
5.492706975944467
 21
-63.30599028602228
 31
0.0
  0
LINE
  5
1FC
330
FF
100
AcDbEntity
  8
0
100
AcDbLine
 10
10.99999999999981
 20
-63.30599028602261
 30
0.0
 11
10.99999999999981
 21
-61.17647058823525
 31
0.0
  0
LINE
  5
1FD
330
FF
100
AcDbEntity
  8
0
100
AcDbLine
 10
14.49999999999981
 20
-45.0
 30
0.0
 11
-14.50000000000018
 21
-45.0
 31
0.0
  0
LINE
  5
1FE
330
FF
100
AcDbEntity
  8
0
100
AcDbLine
 10
-15.00000000000018
 20
-44.5
 30
0.0
 11
-15.00000000000018
 21
-43.00000000000006
 31
0.0
  0
ARC
  5
1FF
330
FF
100
AcDbEntity
  8
0
100
AcDbCircle
 10
-14.50000000000018
 20
-44.5
 30
0.0
 40
0.5
100
AcDbArc
 50
180.0
 51
270.0
  0
LINE
  5
200
330
FF
100
AcDbEntity
  8
0
100
AcDbLine
 10
14.99999999999981
 20
-44.5
 30
0.0
 11
14.99999999999975
 21
-43.00000000000006
 31
0.0
  0
ARC
  5
201
330
FF
100
AcDbEntity
  8
0
100
AcDbCircle
 10
14.49999999999981
 20
-44.5
 30
0.0
 40
0.5
100
AcDbArc
 50
270.0
 51
0.0
  0
ENDSEC
  0
SECTION
  2
OBJECTS
  0
DICTIONARY
  5
ED
330
0
100
AcDbDictionary
281
     1
  3
ACAD_GROUP
350
EE
  3
ACAD_LAYOUT
350
FA
  3
ACAD_MLINESTYLE
350
F7
  3
ACAD_PLOTSETTINGS
350
F9
  3
ACAD_PLOTSTYLENAME
350
EF
  0
DICTIONARY
  5
EE
102
{ACAD_REACTORS
330
ED
102
}
330
ED
100
AcDbDictionary
281
     1
  0
DICTIONARY
  5
FA
102
{ACAD_REACTORS
330
ED
102
}
330
ED
100
AcDbDictionary
281
     1
  3
Layout1
350
FE
  3
Model
350
102
  0
DICTIONARY
  5
F7
102
{ACAD_REACTORS
330
ED
102
}
330
ED
100
AcDbDictionary
281
     1
  3
Standard
350
F8
  0
DICTIONARY
  5
F9
102
{ACAD_REACTORS
330
ED
102
}
330
ED
100
AcDbDictionary
281
     1
  0
ACDBDICTIONARYWDFLT
  5
EF
102
{ACAD_REACTORS
330
ED
102
}
330
ED
100
AcDbDictionary
281
     1
  3
Normal
350
F0
100
AcDbDictionaryWithDefault
340
F0
  0
LAYOUT
  5
FE
102
{ACAD_REACTORS
330
FA
102
}
330
FA
100
AcDbPlotSettings
  1

  2
C:\Programme\ACAD2000\plotters\Panasonic KX-P5410.pc3
  4

  6

 40
0.0
 41
0.0
 42
0.0
 43
0.0
 44
0.0
 45
0.0
 46
0.0
 47
0.0
 48
0.0
 49
0.0
140
0.0
141
0.0
142
1.0
143
1.0
 70
   688
 72
     0
 73
     0
 74
     5
  7
C:\Programme\ACAD2000\Plot Styles\stölzl.ctb
 75
    16
147
1.0
148
0.0
149
0.0
100
AcDbLayout
  1
Layout1
 70
     0
 71
     1
 10
0.0
 20
0.0
 11
12.0
 21
9.0
 12
0.0
 22
0.0
 32
0.0
 14
1.000000000000000E+20
 24
1.000000000000000E+20
 34
1.000000000000000E+20
 15
-1.000000000000000E+20
 25
-1.000000000000000E+20
 35
-1.000000000000000E+20
146
0.0
 13
0.0
 23
0.0
 33
0.0
 16
1.0
 26
0.0
 36
0.0
 17
0.0
 27
1.0
 37
0.0
 76
     0
330
FB
  0
LAYOUT
  5
102
102
{ACAD_REACTORS
330
FA
102
}
330
FA
100
AcDbPlotSettings
  1

  2
C:\Programme\ACAD2000\plotters\Panasonic KX-P5410.pc3
  4

  6

 40
0.0
 41
0.0
 42
0.0
 43
0.0
 44
0.0
 45
0.0
 46
0.0
 47
0.0
 48
0.0
 49
0.0
140
0.0
141
0.0
142
1.0
143
1.0
 70
  1712
 72
     0
 73
     0
 74
     0
  7
C:\Programme\ACAD2000\Plot Styles\stölzl.ctb
 75
     0
147
1.0
148
0.0
149
0.0
100
AcDbLayout
  1
Model
 70
     1
 71
     0
 10
0.0
 20
0.0
 11
12.0
 21
9.0
 12
0.0
 22
0.0
 32
0.0
 14
0.0
 24
0.0
 34
0.0
 15
0.0
 25
0.0
 35
0.0
146
0.0
 13
0.0
 23
0.0
 33
0.0
 16
1.0
 26
0.0
 36
0.0
 17
0.0
 27
1.0
 37
0.0
 76
     0
330
FF
  0
MLINESTYLE
  5
F8
102
{ACAD_REACTORS
330
F7
102
}
330
F7
100
AcDbMlineStyle
  2
STANDARD
 70
     0
  3

 62
   256
 51
90.0
 52
90.0
 71
     2
 49
0.5
 62
   256
  6
BYLAYER
 49
-0.5
 62
   256
  6
BYLAYER
  0
ACDBPLACEHOLDER
  5
F0
102
{ACAD_REACTORS
330
EF
102
}
330
EF
  0
ENDSEC
  0
EOF
