  0
SECTION
  2
HEADER
  9
$ACADVER
  1
AC1009
  9
$INSBASE
 10
0.0
 20
0.0
 30
0.0
  9
$EXTMIN
 10
-64.672844672964288
 20
-78.768433777836663
 30
0.0
  9
$EXTMAX
 10
59.153700222651651
 20
64.672844672964231
 30
0.0
  9
$LIMMIN
 10
0.0
 20
0.0
  9
$LIMMAX
 10
410.0
 20
287.0
  9
$ORTHOMODE
 70
     1
  9
$REGENMODE
 70
     1
  9
$FILLMODE
 70
     1
  9
$QTEXTMODE
 70
     0
  9
$MIRRTEXT
 70
     0
  9
$DRAGMODE
 70
     2
  9
$LTSCALE
 40
25.0
  9
$OSMODE
 70
    39
  9
$ATTMODE
 70
     1
  9
$TEXTSIZE
 40
8.0
  9
$TRACEWID
 40
1.0
  9
$TEXTSTYLE
  7
SIMPLEX
  9
$CLAYER
  8
MITTELLI
  9
$CELTYPE
  6
BYLAYER
  9
$CECOLOR
 62
   256
  9
$DIMSCALE
 40
1.0
  9
$DIMASZ
 40
7.0
  9
$DIMEXO
 40
0.1
  9
$DIMDLI
 40
7.0
  9
$DIMRND
 40
0.0
  9
$DIMDLE
 40
0.0
  9
$DIMEXE
 40
1.8
  9
$DIMTP
 40
1.0
  9
$DIMTM
 40
1.0
  9
$DIMTXT
 40
3.5
  9
$DIMCEN
 40
1.5
  9
$DIMTSZ
 40
0.0
  9
$DIMTOL
 70
     0
  9
$DIMLIM
 70
     0
  9
$DIMTIH
 70
     0
  9
$DIMTOH
 70
     0
  9
$DIMSE1
 70
     0
  9
$DIMSE2
 70
     0
  9
$DIMTAD
 70
     1
  9
$DIMZIN
 70
     0
  9
$DIMBLK
  1

  9
$DIMASO
 70
     0
  9
$DIMSHO
 70
     1
  9
$DIMPOST
  1

  9
$DIMAPOST
  1

  9
$DIMALT
 70
     0
  9
$DIMALTD
 70
     2
  9
$DIMALTF
 40
25.399999999999999
  9
$DIMLFAC
 40
1.0
  9
$DIMTOFL
 70
     0
  9
$DIMTVP
 40
0.0
  9
$DIMTIX
 70
     0
  9
$DIMSOXD
 70
     0
  9
$DIMSAH
 70
     0
  9
$DIMBLK1
  1

  9
$DIMBLK2
  1

  9
$DIMSTYLE
  2
STANDARD
  9
$DIMCLRD
 70
     0
  9
$DIMCLRE
 70
     0
  9
$DIMCLRT
 70
     0
  9
$DIMTFAC
 40
1.0
  9
$DIMGAP
 40
0.09
  9
$LUNITS
 70
     2
  9
$LUPREC
 70
     4
  9
$SKETCHINC
 40
0.1
  9
$FILLETRAD
 40
0.0
  9
$AUNITS
 70
     0
  9
$AUPREC
 70
     0
  9
$MENU
  1
c:/acad/acad
  9
$ELEVATION
 40
0.0
  9
$PELEVATION
 40
0.0
  9
$THICKNESS
 40
0.0
  9
$LIMCHECK
 70
     0
  9
$BLIPMODE
 70
     0
  9
$CHAMFERA
 40
2.0
  9
$CHAMFERB
 40
2.0
  9
$SKPOLY
 70
     0
  9
$TDCREATE
 40
2448364.5747825229
  9
$TDUPDATE
 40
2452655.6944378242
  9
$TDINDWG
 40
0.1591531481
  9
$TDUSRTIMER
 40
0.1591531481
  9
$USRTIMER
 70
     1
  9
$ANGBASE
 50
0.0
  9
$ANGDIR
 70
     0
  9
$PDMODE
 70
     0
  9
$PDSIZE
 40
0.0
  9
$PLINEWID
 40
0.0
  9
$COORDS
 70
     0
  9
$SPLFRAME
 70
     0
  9
$SPLINETYPE
 70
     6
  9
$SPLINESEGS
 70
     8
  9
$ATTDIA
 70
     0
  9
$ATTREQ
 70
     1
  9
$HANDLING
 70
  4097
  9
$HANDSEED
  5
F3
  9
$SURFTAB1
 70
     6
  9
$SURFTAB2
 70
     6
  9
$SURFTYPE
 70
     6
  9
$SURFU
 70
     6
  9
$SURFV
 70
     6
  9
$UCSNAME
  2

  9
$UCSORG
 10
0.0
 20
0.0
 30
0.0
  9
$UCSXDIR
 10
1.0
 20
0.0
 30
0.0
  9
$UCSYDIR
 10
0.0
 20
1.0
 30
0.0
  9
$PUCSNAME
  2

  9
$PUCSORG
 10
0.0
 20
0.0
 30
0.0
  9
$PUCSXDIR
 10
1.0
 20
0.0
 30
0.0
  9
$PUCSYDIR
 10
0.0
 20
1.0
 30
0.0
  9
$USERI1
 70
     0
  9
$USERI2
 70
     0
  9
$USERI3
 70
     0
  9
$USERI4
 70
     0
  9
$USERI5
 70
     0
  9
$USERR1
 40
0.0
  9
$USERR2
 40
0.0
  9
$USERR3
 40
0.0
  9
$USERR4
 40
0.0
  9
$USERR5
 40
0.0
  9
$WORLDVIEW
 70
     1
  9
$SHADEDGE
 70
     3
  9
$SHADEDIF
 70
    70
  9
$TILEMODE
 70
     1
  9
$MAXACTVP
 70
    48
  9
$PLIMCHECK
 70
     0
  9
$PEXTMIN
 10
1.0000000000000000E+020
 20
1.0000000000000000E+020
 30
1.0000000000000000E+020
  9
$PEXTMAX
 10
-1.0000000000000000E+020
 20
-1.0000000000000000E+020
 30
-1.0000000000000000E+020
  9
$PLIMMIN
 10
0.0
 20
0.0
  9
$PLIMMAX
 10
12.0
 20
9.0
  9
$UNITMODE
 70
     0
  9
$VISRETAIN
 70
     1
  9
$PLINEGEN
 70
     0
  9
$PSLTSCALE
 70
     0
  0
ENDSEC
  0
SECTION
  2
TABLES
  0
TABLE
  2
VPORT
 70
     3
  0
VPORT
  2
*ACTIVE
 70
     0
 10
0.0
 20
0.0
 11
1.0
 21
1.0
 12
-0.1732569056988211
 22
-7.0484385329164629
 13
0.0
 23
0.0
 14
0.5
 24
0.5
 15
10.0
 25
10.0
 16
0.0
 26
0.0
 36
1.0
 17
0.0
 27
0.0
 37
0.0
 40
145.8950875693622
 41
2.0726744186046511
 42
50.0
 43
0.0
 44
0.0
 50
0.0
 51
0.0
 71
     0
 72
   100
 73
     1
 74
     0
 75
     0
 76
     0
 77
     0
 78
     0
  0
ENDTAB
  0
TABLE
  2
LTYPE
 70
     2
  0
LTYPE
  2
CONTINUOUS
 70
     0
  3
Solid line
 72
    65
 73
     0
 40
0.0
  0
LTYPE
  2
MITTKLEIN
 70
     0
  3
__ . __ . ___ 
 72
    65
 73
     4
 40
0.45
 49
0.25
 49
-0.1
 49
0.0
 49
-0.1
  0
ENDTAB
  0
TABLE
  2
LAYER
 70
     2
  0
LAYER
  2
0
 70
     0
 62
     7
  6
CONTINUOUS
  0
LAYER
  2
MITTELLI
 70
     0
 62
     1
  6
MITTKLEIN
  0
ENDTAB
  0
TABLE
  2
STYLE
 70
     2
  0
STYLE
  2
TXT
 70
     0
 40
0.0
 41
1.0
 50
0.0
 71
     0
 42
2.5
  3
8txt
  4

  0
STYLE
  2
SIMPLEX
 70
     0
 40
0.0
 41
1.0
 50
0.0
 71
     0
 42
8.0
  3
8simplex
  4

  0
ENDTAB
  0
TABLE
  2
VIEW
 70
     0
  0
ENDTAB
  0
TABLE
  2
UCS
 70
     0
  0
ENDTAB
  0
TABLE
  2
APPID
 70
     1
  0
APPID
  2
ACAD
 70
     0
  0
ENDTAB
  0
TABLE
  2
DIMSTYLE
 70
     1
  0
DIMSTYLE
  2
STANDARD
 70
     0
  3

  4

  5

  6

  7

 40
1.0
 41
0.18
 42
0.0625
 43
0.38
 44
0.18
 45
0.0
 46
0.0
 47
0.0
 48
0.0
140
0.18
141
0.09
142
0.0
143
25.399999999999999
144
1.0
145
0.0
146
1.0
147
0.09
 71
     0
 72
     0
 73
     1
 74
     1
 75
     0
 76
     0
 77
     0
 78
     0
170
     0
171
     2
172
     0
173
     0
174
     0
175
     0
176
     0
177
     0
178
     0
  0
ENDTAB
  0
ENDSEC
  0
SECTION
  2
BLOCKS
  0
BLOCK
  8
0
  2
$MODEL_SPACE
 70
     0
 10
0.0
 20
0.0
 30
0.0
  3
$MODEL_SPACE
  1

  0
ENDBLK
  5
9
  8
0
  0
BLOCK
 67
     1
  8
0
  2
$PAPER_SPACE
 70
     0
 10
0.0
 20
0.0
 30
0.0
  3
$PAPER_SPACE
  1

  0
ENDBLK
  5
E
 67
     1
  8
0
  0
ENDSEC
  0
SECTION
  2
ENTITIES
  0
LINE
  5
27
  8
0
 10
53.999999999999879
 20
50.596442562694051
 30
0.0
 11
53.999999999999879
 21
-50.596442562694108
 31
0.0
  0
LINE
  5
28
  8
MITTELLI
 10
-0.0000000000001137
 20
0.0
 30
0.0
 11
-0.0000000000001137
 21
-78.768433777836663
 31
0.0
  0
CIRCLE
  5
29
  8
0
 10
-44.999999999999879
 20
-45.0
 30
0.0
 40
4.25
  0
LINE
  5
2A
  8
0
 10
-54.000000000000107
 20
-50.596442562694051
 30
0.0
 11
-54.000000000000107
 21
50.596442562693987
 31
0.0
  0
CIRCLE
  5
2B
  8
0
 10
44.999999999999879
 20
-44.999999999999773
 30
0.0
 40
4.25
  0
LINE
  5
2C
  8
0
 10
-0.0607801429797519
 20
-65.013894535453801
 30
0.0
 11
-4.8607801429798201
 21
-65.013894535453801
 31
0.0
  0
ARC
  5
2D
  8
0
 10
-0.0607801429797519
 20
-51.826819936823433
 30
0.0
 40
15.587074598630361
 50
252.06442176845169
 51
287.93557823154828
  0
LINE
  5
2E
  8
0
 10
-6.8911702144696392
 20
-67.413894535453764
 30
0.0
 11
6.7696092729673856
 21
-67.413894535453764
 31
0.0
  0
LINE
  5
2F
  8
0
 10
-8.9215602859593446
 20
-65.013894535453801
 30
0.0
 11
8.7999999999998408
 21
-65.013894535453801
 31
0.0
  0
LINE
  5
30
  8
0
 10
-8.8000000000001801
 20
-63.600000000000023
 30
0.0
 11
8.7999999999998408
 21
-63.600000000000023
 31
0.0
  0
LINE
  5
31
  8
0
 10
50.596442562694051
 20
-54.0
 30
0.0
 11
-50.596442562694278
 21
-54.0
 31
0.0
  0
LINE
  5
32
  8
0
 10
-35.483150151708507
 20
-54.0
 30
0.0
 11
-23.15353549048347
 21
-60.876624650404779
 31
0.0
  0
LINE
  5
33
  8
0
 10
-35.501550986053758
 20
-56.852281305680492
 30
0.0
 11
-28.087927975363868
 21
-60.987098503532252
 31
0.0
  0
ARC
  5
34
  8
0
 10
-26.4519239185671
 20
-49.340156276385642
 30
0.0
 40
10.96873477960308
 50
218.08525604811581
 51
263.61510255923361
  0
ARC
  5
35
  8
0
 10
-0.0000000000001137
 20
0.0
 30
0.0
 40
74.0
 50
223.13625887129569
 51
226.86374112870411
  0
LINE
  5
36
  8
0
 10
-37.359878513288997
 20
-55.815831973447978
 30
0.0
 11
-35.501550986053758
 21
-56.852281305680492
 31
0.0
  0
ARC
  5
37
  8
0
 10
-35.861271314155708
 20
-53.128867040330078
 30
0.0
 40
3.0766221882285159
 50
196.4480519582529
 51
284.60774246902878
  0
LINE
  5
38
  8
0
 10
-34.283813555644542
 20
-54.668908788087542
 30
0.0
 11
-35.085346816761103
 21
-56.106037721268592
 31
0.0
  0
LINE
  5
39
  8
0
 10
-4.8607801429798201
 20
-65.013894535453801
 30
0.0
 11
-4.8607801429798201
 21
-66.656415162023166
 31
0.0
  0
LINE
  5
3A
  8
0
 10
-8.9215602859593446
 20
-65.013894535453801
 30
0.0
 11
-8.9215602859593446
 21
-66.65641516202345
 31
0.0
  0
ARC
  5
3B
  8
0
 10
-6.8911702144696392
 20
-64.313969304283475
 30
0.0
 40
3.0999252311703129
 50
229.0818410078268
 51
310.91815899217318
  0
LINE
  5
3C
  8
0
 10
-21.935798060074259
 20
-58.693252132811722
 30
0.0
 11
-30.350680832850799
 21
-54.0
 31
0.0
  0
LINE
  5
3D
  8
0
 10
-21.935798060074259
 20
-58.693252132811722
 30
0.0
 11
-19.318219636593192
 21
-54.0
 31
0.0
  0
ARC
  5
3E
  8
0
 10
-24.73099324899556
 20
-59.336582902647763
 30
0.0
 40
3.0766221882279492
 50
197.0926161383118
 51
284.60774246903509
  0
LINE
  5
3F
  8
0
 10
-23.955068751599921
 20
-62.313753583585537
 30
0.0
 11
-23.15353549048347
 21
-60.876624650404779
 31
0.0
  0
LINE
  5
40
  8
0
 10
-28.087927975363868
 20
-60.987098503532252
 30
0.0
 11
-26.229600448128281
 21
-62.023547835764987
 31
0.0
  0
LINE
  5
41
  8
0
 10
-26.870190544954649
 20
-58.803725985939188
 30
0.0
 11
-27.67172380607132
 21
-60.240854919120288
 31
0.0
  0
LINE
  5
42
  8
0
 10
-24.625099464885349
 20
-60.055885853689233
 30
0.0
 11
-23.40736203447613
 21
-57.87251333609629
 31
0.0
  0
LINE
  5
43
  8
0
 10
-8.0000000000001137
 20
-63.600000000000023
 30
0.0
 11
-8.0000000000001137
 21
-65.013894535453801
 31
0.0
  0
LINE
  5
44
  8
0
 10
-8.8000000000001801
 20
-54.0
 30
0.0
 11
-8.8000000000001801
 21
-63.600000000000023
 31
0.0
  0
LINE
  5
45
  8
0
 10
38.023389780948492
 20
-59.484705094613332
 30
0.0
 11
28.307555155962181
 21
-64.717434337862244
 31
0.0
  0
ARC
  5
46
  8
0
 10
26.40398679798124
 20
-49.546726936454888
 30
0.0
 40
14.259355213484
 50
275.54097986163401
 51
321.07082637275369
  0
LINE
  5
47
  8
0
 10
41.353125945041477
 20
-54.0
 30
0.0
 11
21.895656004827401
 21
-64.479354155942005
 31
0.0
  0
LINE
  5
48
  8
0
 10
20.35457451130651
 20
-61.617961517675148
 30
0.0
 11
34.499173026648002
 21
-54.0
 31
0.0
  0
ARC
  5
49
  8
0
 10
23.97561612042216
 20
-62.507720933986427
 30
0.0
 40
3.999608844696334
 50
254.5483399518325
 51
342.06346628255591
  0
LINE
  5
4A
  8
0
 10
8.7999999999998408
 20
-65.013894535453801
 30
0.0
 11
8.7999999999998408
 21
-66.656415162023663
 31
0.0
  0
LINE
  5
4B
  8
0
 10
4.7392198570202018
 20
-65.013894535453801
 30
0.0
 11
4.7392198570203163
 21
-66.656415162023166
 31
0.0
  0
ARC
  5
4C
  8
0
 10
6.7696099285100209
 20
-64.313969304283475
 30
0.0
 40
3.0999252311703129
 50
229.0818410078268
 51
310.91815899217312
  0
LINE
  5
4D
  8
0
 10
7.8784397140407227
 20
-63.600000000000023
 30
0.0
 11
7.8784397140407227
 21
-65.013894535453801
 31
0.0
  0
LINE
  5
4E
  8
0
 10
8.7999999999998408
 20
-63.600000000000023
 30
0.0
 11
8.7999999999998408
 21
-54.0
 31
0.0
  0
LINE
  5
4F
  8
0
 10
23.82419650314511
 20
-63.440685770584253
 30
0.0
 11
22.283115009624328
 21
-60.579293132317503
 31
0.0
  0
LINE
  5
50
  8
0
 10
22.910019236425569
 20
-66.362766224431823
 30
0.0
 11
21.895656004827401
 21
-64.479354155942005
 31
0.0
  0
LINE
  5
51
  8
0
 10
26.766473662441388
 20
-61.856041699595501
 30
0.0
 11
27.780836894039791
 21
-63.739453768085703
 31
0.0
  0
LINE
  5
52
  8
0
 10
28.307555155962181
 20
-64.717434337862244
 30
0.0
 11
25.872146327155289
 21
-66.029090566035507
 31
0.0
  0
LINE
  5
53
  8
0
 10
20.35457451130651
 20
-61.617961517675148
 30
0.0
 11
16.25171237479287
 21
-54.0
 31
0.0
  0
LINE
  5
54
  8
0
 10
36.4823082874276
 20
-56.623312456346582
 30
0.0
 11
37.496671519025988
 21
-58.506724524836841
 31
0.0
  0
LINE
  5
55
  8
0
 10
39.424585446723881
 20
-55.038668385357703
 30
0.0
 11
38.998614842465031
 21
-54.247750347428727
 31
0.0
  0
LINE
  5
56
  8
0
 10
42.367489176639651
 20
-55.883412068489513
 30
0.0
 11
41.353125945041477
 21
-54.0
 31
0.0
  0
ARC
  5
57
  8
0
 10
38.562268403022017
 20
-54.651679234391167
 30
0.0
 40
3.999608844696334
 50
254.5483399518325
 51
342.06346628255909
  0
LINE
  5
58
  8
0
 10
40.458798609755029
 20
-58.173048866440347
 30
0.0
 11
38.023389780948492
 21
-59.484705094613332
 31
0.0
  0
ARC
  5
59
  8
0
 10
-0.0000000000001137
 20
0.0
 30
0.0
 40
74.0
 50
313.13625887129581
 51
316.86374112870419
  0
LINE
  5
5D
  8
MITTELLI
 10
-64.672844672964288
 20
-0.0000000000002842
 30
0.0
 11
0.0
 21
0.0000000000001137
 31
0.0
  0
LINE
  5
5E
  8
0
 10
-50.596442562694278
 20
54.0
 30
0.0
 11
50.596442562694051
 21
54.0
 31
0.0
  0
ARC
  5
5F
  8
0
 10
-0.0000000000001137
 20
0.0
 30
0.0
 40
74.0
 50
133.13625887129581
 51
136.86374112870419
  0
CIRCLE
  5
60
  8
0
 10
-45.000000000000107
 20
44.999999999999773
 30
0.0
 40
4.25
  0
LINE
  5
61
  8
MITTELLI
 10
-0.0000000000001137
 20
64.672844672964231
 30
0.0
 11
-0.0000000000001137
 21
0.0
 31
0.0
  0
LINE
  5
62
  8
MITTELLI
 10
-0.0000000000001137
 20
0.0
 30
0.0
 11
59.153700222651651
 21
0.0
 31
0.0
  0
CIRCLE
  5
66
  8
0
 10
44.999999999999659
 20
45.000000000000057
 30
0.0
 40
4.25
  0
ARC
  5
67
  8
0
 10
-0.0000000000001137
 20
0.0
 30
0.0
 40
74.0
 50
43.136258871295809
 51
46.863741128704199
  0
CIRCLE
  5
B6
  8
0
 10
0.0
 20
0.0000000000001137
 30
0.0
 40
30.0
  0
CIRCLE
  5
B7
  8
0
 10
0.0
 20
0.0000000000001137
 30
0.0
 40
13.5
  0
CIRCLE
  5
B8
  8
0
 10
-0.0000000000001137
 20
0.0
 30
0.0
 40
8.0
  0
LINE
  5
B9
  8
0
 10
10.000000000001361
 20
-2.4999999999997722
 30
0.0
 11
10.000000000001361
 21
2.5
 31
0.0
  0
LINE
  5
BA
  8
0
 10
10.000000000001361
 20
2.5
 30
0.0
 11
7.5993420767852182
 21
2.5
 31
0.0
  0
LINE
  5
BB
  8
0
 10
10.000000000001361
 20
-2.4999999999997722
 30
0.0
 11
7.5993420767852919
 21
-2.4999999999997722
 31
0.0
  0
ENDSEC
  0
EOF
