  0
SECTION
  2
HEADER
  9
$ACADVER
  1
AC1009
  9
$INSBASE
 10
0.0
 20
0.0
 30
0.0
  9
$EXTMIN
 10
-23.504179980959972
 20
-44.480269769300087
 30
-0.0015258207003583
  9
$EXTMAX
 10
81.066589927145515
 20
28.2594455574399
 30
0.0000000349246037
  9
$LIMMIN
 10
0.0
 20
0.0
  9
$LIMMAX
 10
410.0
 20
287.0
  9
$ORTHOMODE
 70
     0
  9
$REGENMODE
 70
     1
  9
$FILLMODE
 70
     1
  9
$QTEXTMODE
 70
     0
  9
$MIRRTEXT
 70
     1
  9
$DRAGMODE
 70
     2
  9
$LTSCALE
 40
25.0
  9
$OSMODE
 70
   309
  9
$ATTMODE
 70
     1
  9
$TEXTSIZE
 40
2.0
  9
$TRACEWID
 40
1.0
  9
$TEXTSTYLE
  7
SIMPLEX
  9
$CLAYER
  8
0
  9
$CELTYPE
  6
BYLAYER
  9
$CECOLOR
 62
   256
  9
$DIMSCALE
 40
1.0
  9
$DIMASZ
 40
3.5
  9
$DIMEXO
 40
0.1
  9
$DIMDLI
 40
7.0
  9
$DIMRND
 40
0.0
  9
$DIMDLE
 40
0.0
  9
$DIMEXE
 40
1.8
  9
$DIMTP
 40
0.0
  9
$DIMTM
 40
0.0
  9
$DIMTXT
 40
3.5
  9
$DIMCEN
 40
1.5
  9
$DIMTSZ
 40
0.0
  9
$DIMTOL
 70
     0
  9
$DIMLIM
 70
     1
  9
$DIMTIH
 70
     0
  9
$DIMTOH
 70
     0
  9
$DIMSE1
 70
     0
  9
$DIMSE2
 70
     0
  9
$DIMTAD
 70
     1
  9
$DIMZIN
 70
     0
  9
$DIMBLK
  1

  9
$DIMASO
 70
     0
  9
$DIMSHO
 70
     0
  9
$DIMPOST
  1

  9
$DIMAPOST
  1

  9
$DIMALT
 70
     0
  9
$DIMALTD
 70
     2
  9
$DIMALTF
 40
25.399999999999999
  9
$DIMLFAC
 40
1.0
  9
$DIMTOFL
 70
     0
  9
$DIMTVP
 40
0.0
  9
$DIMTIX
 70
     0
  9
$DIMSOXD
 70
     0
  9
$DIMSAH
 70
     0
  9
$DIMBLK1
  1

  9
$DIMBLK2
  1

  9
$DIMSTYLE
  2
STANDARD
  9
$DIMCLRD
 70
     0
  9
$DIMCLRE
 70
     0
  9
$DIMCLRT
 70
     0
  9
$DIMTFAC
 40
1.0
  9
$DIMGAP
 40
0.09
  9
$LUNITS
 70
     2
  9
$LUPREC
 70
     2
  9
$SKETCHINC
 40
1.0
  9
$FILLETRAD
 40
0.0
  9
$AUNITS
 70
     0
  9
$AUPREC
 70
     0
  9
$MENU
  1
ACAD
  9
$ELEVATION
 40
0.0
  9
$PELEVATION
 40
0.0
  9
$THICKNESS
 40
0.0
  9
$LIMCHECK
 70
     0
  9
$BLIPMODE
 70
     0
  9
$CHAMFERA
 40
0.5
  9
$CHAMFERB
 40
0.5
  9
$SKPOLY
 70
     0
  9
$TDCREATE
 40
2448527.3363592592
  9
$TDUPDATE
 40
2452618.6902289349
  9
$TDINDWG
 40
0.0464564931
  9
$TDUSRTIMER
 40
0.0464564931
  9
$USRTIMER
 70
     1
  9
$ANGBASE
 50
0.0
  9
$ANGDIR
 70
     0
  9
$PDMODE
 70
     0
  9
$PDSIZE
 40
0.0
  9
$PLINEWID
 40
0.0
  9
$COORDS
 70
     0
  9
$SPLFRAME
 70
     0
  9
$SPLINETYPE
 70
     6
  9
$SPLINESEGS
 70
     8
  9
$ATTDIA
 70
     0
  9
$ATTREQ
 70
     1
  9
$HANDLING
 70
  4097
  9
$HANDSEED
  5
54
  9
$SURFTAB1
 70
     6
  9
$SURFTAB2
 70
     6
  9
$SURFTYPE
 70
     6
  9
$SURFU
 70
     6
  9
$SURFV
 70
     6
  9
$UCSNAME
  2

  9
$UCSORG
 10
0.0
 20
0.0
 30
0.0
  9
$UCSXDIR
 10
1.0
 20
0.0
 30
0.0
  9
$UCSYDIR
 10
0.0
 20
1.0
 30
0.0
  9
$PUCSNAME
  2

  9
$PUCSORG
 10
0.0
 20
0.0
 30
0.0
  9
$PUCSXDIR
 10
1.0
 20
0.0
 30
0.0
  9
$PUCSYDIR
 10
0.0
 20
1.0
 30
0.0
  9
$USERI1
 70
     0
  9
$USERI2
 70
     0
  9
$USERI3
 70
     0
  9
$USERI4
 70
     0
  9
$USERI5
 70
     0
  9
$USERR1
 40
0.0
  9
$USERR2
 40
0.0
  9
$USERR3
 40
0.0
  9
$USERR4
 40
0.0
  9
$USERR5
 40
0.0
  9
$WORLDVIEW
 70
     1
  9
$SHADEDGE
 70
     3
  9
$SHADEDIF
 70
    70
  9
$TILEMODE
 70
     1
  9
$MAXACTVP
 70
    64
  9
$PLIMCHECK
 70
     0
  9
$PEXTMIN
 10
1.0000000000000000E+020
 20
1.0000000000000000E+020
 30
1.0000000000000000E+020
  9
$PEXTMAX
 10
-1.0000000000000000E+020
 20
-1.0000000000000000E+020
 30
-1.0000000000000000E+020
  9
$PLIMMIN
 10
0.0
 20
0.0
  9
$PLIMMAX
 10
12.0
 20
9.0
  9
$UNITMODE
 70
     0
  9
$VISRETAIN
 70
     1
  9
$PLINEGEN
 70
     0
  9
$PSLTSCALE
 70
     0
  0
ENDSEC
  0
SECTION
  2
TABLES
  0
TABLE
  2
VPORT
 70
     2
  0
VPORT
  2
*ACTIVE
 70
     0
 10
0.0
 20
0.0
 11
1.0
 21
1.0
 12
33.083807133648357
 22
-6.8196323283543157
 13
0.0
 23
0.0
 14
10.0
 24
10.0
 15
10.0
 25
10.0
 16
0.0
 26
0.0
 36
1.0
 17
0.0
 27
0.0
 37
0.0
 40
85.845514966180986
 41
2.0726744186046511
 42
50.0
 43
0.0
 44
0.0
 50
0.0
 51
0.0
 71
     0
 72
   100
 73
     1
 74
     0
 75
     0
 76
     0
 77
     0
 78
     0
  0
ENDTAB
  0
TABLE
  2
LTYPE
 70
     2
  0
LTYPE
  2
CONTINUOUS
 70
     0
  3
Solid line
 72
    65
 73
     0
 40
0.0
  0
LTYPE
  2
MITTKLEIN
 70
     0
  3
__ . __ . ___ 
 72
    65
 73
     4
 40
0.45
 49
0.25
 49
-0.1
 49
0.0
 49
-0.1
  0
ENDTAB
  0
TABLE
  2
LAYER
 70
     2
  0
LAYER
  2
0
 70
     0
 62
     7
  6
CONTINUOUS
  0
LAYER
  2
MITTELLI
 70
     0
 62
     1
  6
MITTKLEIN
  0
ENDTAB
  0
TABLE
  2
STYLE
 70
     2
  0
STYLE
  2
STANDARD
 70
     0
 40
0.0
 41
1.0
 50
0.0
 71
     0
 42
2.5
  3
txt
  4

  0
STYLE
  2
SIMPLEX
 70
     0
 40
0.0
 41
1.0
 50
0.0
 71
     0
 42
2.0
  3
simplex
  4

  0
ENDTAB
  0
TABLE
  2
VIEW
 70
     0
  0
ENDTAB
  0
TABLE
  2
UCS
 70
     0
  0
ENDTAB
  0
TABLE
  2
APPID
 70
     1
  0
APPID
  2
ACAD
 70
     0
  0
ENDTAB
  0
TABLE
  2
DIMSTYLE
 70
     1
  0
DIMSTYLE
  2
STANDARD
 70
     0
  3

  4

  5

  6

  7

 40
1.0
 41
0.18
 42
0.0625
 43
0.38
 44
0.18
 45
0.0
 46
0.0
 47
0.0
 48
0.0
140
0.18
141
0.09
142
0.0
143
25.399999999999999
144
1.0
145
0.0
146
1.0
147
0.09
 71
     0
 72
     0
 73
     1
 74
     1
 75
     0
 76
     0
 77
     0
 78
     0
170
     0
171
     2
172
     0
173
     0
174
     0
175
     0
176
     0
177
     0
178
     0
  0
ENDTAB
  0
ENDSEC
  0
SECTION
  2
BLOCKS
  0
BLOCK
  8
0
  2
$MODEL_SPACE
 70
     0
 10
0.0
 20
0.0
 30
0.0
  3
$MODEL_SPACE
  1

  0
ENDBLK
  5
9
  8
0
  0
BLOCK
 67
     1
  8
0
  2
$PAPER_SPACE
 70
     0
 10
0.0
 20
0.0
 30
0.0
  3
$PAPER_SPACE
  1

  0
ENDBLK
  5
E
 67
     1
  8
0
  0
ENDSEC
  0
SECTION
  2
ENTITIES
  0
LINE
  5
25
  8
0
 10
68.849999999999966
 20
-28.249960199999862
 30
0.0
 11
68.849999999999966
 21
-38.975003979999961
 31
0.0
  0
LINE
  5
26
  8
0
 10
50.149999999999999
 20
-38.975003979999961
 30
0.0
 11
50.149999999999999
 21
-28.249960199999862
 31
0.0
  0
LINE
  5
27
  8
0
 10
68.849999999999966
 20
-38.975003979999961
 30
0.0
 11
50.149999999999999
 21
-38.975003979999961
 31
0.0
  0
LINE
  5
28
  8
0
 10
68.849999999999966
 20
-41.725003979999961
 30
0.0
 11
50.149999999999999
 21
-41.725003979999961
 31
0.0
  0
ARC
  5
29
  8
0
 10
59.499999999999943
 20
-32.409395722436606
 30
0.0
 40
12.06560825756339
 50
247.23507674444221
 51
292.76492325555779
  0
LINE
  5
2A
  8
0
 10
64.168800929552944
 20
-44.475003979999968
 30
0.0
 11
54.831199070447013
 21
-44.475003979999968
 31
0.0
  0
ARC
  5
2B
  8
0
 10
52.490599535223623
 20
-41.090719572949723
 30
0.0
 40
3.3842844070507438
 50
226.24243683463339
 51
313.75756316536189
  0
LINE
  5
2C
  8
0
 10
54.831199070447013
 20
-44.475003979999968
 30
0.0
 11
52.49059953522351
 21
-44.475003979999968
 31
0.0
  0
LINE
  5
2D
  8
0
 10
52.003463344892879
 20
-41.725003979999961
 30
0.0
 11
52.003463344892879
 21
-38.975003979999961
 31
0.0
  0
LINE
  5
2E
  8
0
 10
50.149999999999999
 20
-43.535095723118559
 30
0.0
 11
50.149999999999999
 21
-41.725003979999961
 31
0.0
  0
LINE
  5
2F
  8
0
 10
54.831199070447013
 20
-41.725003979999961
 30
0.0
 11
54.831199070447013
 21
-43.535095723118921
 31
0.0
  0
LINE
  5
30
  8
0
 10
66.996536655107036
 20
-41.725003979999961
 30
0.0
 11
66.996536655107036
 21
-38.975003979999961
 31
0.0
  0
ARC
  5
31
  8
0
 10
66.509400464776036
 20
-41.090719572948721
 30
0.0
 40
3.3842844070513678
 50
226.24243683464601
 51
313.75756316535728
  0
LINE
  5
32
  8
0
 10
66.509400464776036
 20
-44.475003979999968
 30
0.0
 11
64.168800929552944
 21
-44.475003979999968
 31
0.0
  0
LINE
  5
33
  8
0
 10
64.168800929552944
 20
-41.725003979999961
 30
0.0
 11
64.168800929552944
 21
-43.535095723118921
 31
0.0
  0
LINE
  5
34
  8
0
 10
68.849999999999966
 20
-43.535095723119177
 30
0.0
 11
68.849999999999966
 21
-41.725003979999961
 31
0.0
  0
LINE
  5
35
  8
MITTELLI
 10
-23.494608484370641
 20
0.0
 30
0.0
 11
81.051860237655262
 21
0.0
 31
0.0
  0
LINE
  5
38
  8
0
 10
0.0
 20
28.2499602
 30
0.0
 11
76.0
 21
28.249960199999968
 31
0.0
  0
TEXT
  5
39
  8
0
 10
6.9607769305471834
 20
-23.098042635886479
 30
0.0
 40
3.2000000000000002
  1
SM 56.1.18 J
  7
SIMPLEX
  0
LINE
  5
3A
  8
0
 10
0.0
 20
-28.249960199999862
 30
0.0
 11
76.0
 21
-28.249960199999862
 31
0.0
  0
LINE
  5
3B
  8
0
 10
-1.5
 20
19.050000000000061
 30
0.0
 11
-1.4999999999999849
 21
-19.049999999999951
 31
0.0
  0
LINE
  5
3C
  8
0
 10
0.0
 20
28.2499602
 30
0.0
 11
0.0
 21
-28.249960199999862
 31
0.0
  0
LINE
  5
3D
  8
0
 10
4.6999999999999877
 20
28.249960199999968
 30
0.0
 11
4.6999999999999877
 21
-28.249960200000029
 31
0.0
  0
LINE
  5
3E
  8
0
 10
-1.5
 20
3.1750000000000109
 30
0.0
 11
-20.499999999999979
 21
3.1750000000000962
 31
0.0
  0
LINE
  5
3F
  8
0
 10
-1.5
 20
-3.1749999999999541
 30
0.0
 11
-20.499999999999979
 21
-3.1749999999999541
 31
0.0
  0
LINE
  5
40
  8
0
 10
-21.0
 20
2.6750000000000682
 30
0.0
 11
-21.000000000000011
 21
-2.6749999999999541
 31
0.0
  0
LINE
  5
41
  8
0
 10
-20.499999999999979
 20
3.1750000000000962
 30
0.0
 11
-20.499999999999979
 21
-3.1749999999999541
 31
0.0
  0
LINE
  5
42
  8
0
 10
-20.500000000000011
 20
-3.1749999999999541
 30
0.0
 11
-21.000000000000011
 21
-2.6749999999999541
 31
0.0
  0
LINE
  5
43
  8
0
 10
-21.0
 20
2.6750000000000682
 30
0.0
 11
-20.5
 21
3.1750000000000682
 31
0.0
  0
LINE
  5
44
  8
0
 10
-0.0000000000000142
 20
-19.049999999999979
 30
0.0
 11
-1.5
 21
-19.049999999999979
 31
0.0
  0
LINE
  5
45
  8
0
 10
0.0
 20
19.050000000000061
 30
0.0
 11
-1.5
 21
19.050000000000061
 31
0.0
  0
LINE
  5
46
  8
0
 10
42.699999999999982
 20
28.249960199999968
 30
0.0
 11
42.699999999999982
 21
-28.249960200000029
 31
0.0
  0
LINE
  5
47
  8
0
 10
73.0
 20
28.249960199999968
 30
0.0
 11
73.0
 21
-28.249960200000029
 31
0.0
  0
LINE
  5
48
  8
0
 10
76.0
 20
28.249960199999968
 30
0.0
 11
76.0
 21
-28.249960199999862
 31
0.0
  0
LINE
  5
49
  8
0
 10
51.0
 20
-28.249960200000029
 30
0.0
 11
67.999999999999972
 21
-28.249960200000029
 31
0.0
  0
LINE
  5
4A
  8
0
 10
67.999999999999972
 20
-28.249960200000029
 30
0.0
 11
67.999999999999972
 21
-28.249960200000029
 31
0.0
  0
ENDSEC
  0
EOF
