  0
SECTION
  2
HEADER
  9
$ACADVER
  1
AC1009
  9
$INSBASE
 10
149.42911109261499
 20
-0.0000000000002558
 30
0.0
  9
$EXTMIN
 10
-42.741698313902241
 20
-35.371383039945947
 30
-0.0015258207003583
  9
$EXTMAX
 10
40.433197545857631
 20
34.149567024257863
 30
0.0000000349246037
  9
$LIMMIN
 10
0.0
 20
0.0
  9
$LIMMAX
 10
410.0
 20
287.0
  9
$ORTHOMODE
 70
     1
  9
$REGENMODE
 70
     1
  9
$FILLMODE
 70
     1
  9
$QTEXTMODE
 70
     0
  9
$MIRRTEXT
 70
     1
  9
$DRAGMODE
 70
     2
  9
$LTSCALE
 40
25.0
  9
$OSMODE
 70
   309
  9
$ATTMODE
 70
     1
  9
$TEXTSIZE
 40
2.0
  9
$TRACEWID
 40
1.0
  9
$TEXTSTYLE
  7
SIMPLEX
  9
$CLAYER
  8
0
  9
$CELTYPE
  6
BYLAYER
  9
$CECOLOR
 62
   256
  9
$DIMSCALE
 40
1.0
  9
$DIMASZ
 40
3.5
  9
$DIMEXO
 40
0.1
  9
$DIMDLI
 40
7.0
  9
$DIMRND
 40
0.0
  9
$DIMDLE
 40
0.0
  9
$DIMEXE
 40
1.8
  9
$DIMTP
 40
0.0
  9
$DIMTM
 40
0.0
  9
$DIMTXT
 40
3.5
  9
$DIMCEN
 40
1.5
  9
$DIMTSZ
 40
0.0
  9
$DIMTOL
 70
     0
  9
$DIMLIM
 70
     1
  9
$DIMTIH
 70
     0
  9
$DIMTOH
 70
     0
  9
$DIMSE1
 70
     0
  9
$DIMSE2
 70
     0
  9
$DIMTAD
 70
     1
  9
$DIMZIN
 70
     0
  9
$DIMBLK
  1

  9
$DIMASO
 70
     0
  9
$DIMSHO
 70
     0
  9
$DIMPOST
  1

  9
$DIMAPOST
  1

  9
$DIMALT
 70
     0
  9
$DIMALTD
 70
     2
  9
$DIMALTF
 40
25.399999999999999
  9
$DIMLFAC
 40
1.0
  9
$DIMTOFL
 70
     0
  9
$DIMTVP
 40
0.0
  9
$DIMTIX
 70
     0
  9
$DIMSOXD
 70
     0
  9
$DIMSAH
 70
     0
  9
$DIMBLK1
  1

  9
$DIMBLK2
  1

  9
$DIMSTYLE
  2
STANDARD
  9
$DIMCLRD
 70
     0
  9
$DIMCLRE
 70
     0
  9
$DIMCLRT
 70
     0
  9
$DIMTFAC
 40
1.0
  9
$DIMGAP
 40
0.09
  9
$LUNITS
 70
     2
  9
$LUPREC
 70
     2
  9
$SKETCHINC
 40
1.0
  9
$FILLETRAD
 40
0.0
  9
$AUNITS
 70
     0
  9
$AUPREC
 70
     0
  9
$MENU
  1
ACAD
  9
$ELEVATION
 40
0.0
  9
$PELEVATION
 40
0.0
  9
$THICKNESS
 40
0.0
  9
$LIMCHECK
 70
     0
  9
$BLIPMODE
 70
     0
  9
$CHAMFERA
 40
0.5
  9
$CHAMFERB
 40
0.5
  9
$SKPOLY
 70
     0
  9
$TDCREATE
 40
2448527.3363592592
  9
$TDUPDATE
 40
2452627.6465063421
  9
$TDINDWG
 40
0.0636571412
  9
$TDUSRTIMER
 40
0.0636571412
  9
$USRTIMER
 70
     1
  9
$ANGBASE
 50
0.0
  9
$ANGDIR
 70
     0
  9
$PDMODE
 70
     0
  9
$PDSIZE
 40
0.0
  9
$PLINEWID
 40
0.0
  9
$COORDS
 70
     0
  9
$SPLFRAME
 70
     0
  9
$SPLINETYPE
 70
     6
  9
$SPLINESEGS
 70
     8
  9
$ATTDIA
 70
     0
  9
$ATTREQ
 70
     1
  9
$HANDLING
 70
  4097
  9
$HANDSEED
  5
65
  9
$SURFTAB1
 70
     6
  9
$SURFTAB2
 70
     6
  9
$SURFTYPE
 70
     6
  9
$SURFU
 70
     6
  9
$SURFV
 70
     6
  9
$UCSNAME
  2

  9
$UCSORG
 10
0.0
 20
0.0
 30
0.0
  9
$UCSXDIR
 10
1.0
 20
0.0
 30
0.0
  9
$UCSYDIR
 10
0.0
 20
1.0
 30
0.0
  9
$PUCSNAME
  2

  9
$PUCSORG
 10
0.0
 20
0.0
 30
0.0
  9
$PUCSXDIR
 10
1.0
 20
0.0
 30
0.0
  9
$PUCSYDIR
 10
0.0
 20
1.0
 30
0.0
  9
$USERI1
 70
     0
  9
$USERI2
 70
     0
  9
$USERI3
 70
     0
  9
$USERI4
 70
     0
  9
$USERI5
 70
     0
  9
$USERR1
 40
0.0
  9
$USERR2
 40
0.0
  9
$USERR3
 40
0.0
  9
$USERR4
 40
0.0
  9
$USERR5
 40
0.0
  9
$WORLDVIEW
 70
     1
  9
$SHADEDGE
 70
     3
  9
$SHADEDIF
 70
    70
  9
$TILEMODE
 70
     1
  9
$MAXACTVP
 70
    64
  9
$PLIMCHECK
 70
     0
  9
$PEXTMIN
 10
1.0000000000000000E+020
 20
1.0000000000000000E+020
 30
1.0000000000000000E+020
  9
$PEXTMAX
 10
-1.0000000000000000E+020
 20
-1.0000000000000000E+020
 30
-1.0000000000000000E+020
  9
$PLIMMIN
 10
0.0
 20
0.0
  9
$PLIMMAX
 10
12.0
 20
9.0
  9
$UNITMODE
 70
     0
  9
$VISRETAIN
 70
     1
  9
$PLINEGEN
 70
     0
  9
$PSLTSCALE
 70
     0
  0
ENDSEC
  0
SECTION
  2
TABLES
  0
TABLE
  2
VPORT
 70
     2
  0
VPORT
  2
*ACTIVE
 70
     0
 10
0.0
 20
0.0
 11
1.0
 21
1.0
 12
-1.1542503840222971
 22
-0.6109080078440458
 13
0.0
 23
0.0
 14
10.0
 24
10.0
 15
10.0
 25
10.0
 16
0.0
 26
0.0
 36
1.0
 17
0.0
 27
0.0
 37
0.0
 40
70.7300100653204
 41
2.0726744186046511
 42
50.0
 43
0.0
 44
0.0
 50
0.0
 51
0.0
 71
     0
 72
   100
 73
     1
 74
     0
 75
     0
 76
     0
 77
     0
 78
     0
  0
ENDTAB
  0
TABLE
  2
LTYPE
 70
     2
  0
LTYPE
  2
CONTINUOUS
 70
     0
  3
Solid line
 72
    65
 73
     0
 40
0.0
  0
LTYPE
  2
MITTKLEIN
 70
     0
  3
__ . __ . ___ 
 72
    65
 73
     4
 40
0.45
 49
0.25
 49
-0.1
 49
0.0
 49
-0.1
  0
ENDTAB
  0
TABLE
  2
LAYER
 70
     2
  0
LAYER
  2
0
 70
     0
 62
     7
  6
CONTINUOUS
  0
LAYER
  2
MITTELLI
 70
     0
 62
     1
  6
MITTKLEIN
  0
ENDTAB
  0
TABLE
  2
STYLE
 70
     2
  0
STYLE
  2
STANDARD
 70
     0
 40
0.0
 41
1.0
 50
0.0
 71
     0
 42
2.5
  3
txt
  4

  0
STYLE
  2
SIMPLEX
 70
     0
 40
0.0
 41
1.0
 50
0.0
 71
     0
 42
2.0
  3
simplex
  4

  0
ENDTAB
  0
TABLE
  2
VIEW
 70
     0
  0
ENDTAB
  0
TABLE
  2
UCS
 70
     0
  0
ENDTAB
  0
TABLE
  2
APPID
 70
     1
  0
APPID
  2
ACAD
 70
     0
  0
ENDTAB
  0
TABLE
  2
DIMSTYLE
 70
     1
  0
DIMSTYLE
  2
STANDARD
 70
     0
  3

  4

  5

  6

  7

 40
1.0
 41
0.18
 42
0.0625
 43
0.38
 44
0.18
 45
0.0
 46
0.0
 47
0.0
 48
0.0
140
0.18
141
0.09
142
0.0
143
25.399999999999999
144
1.0
145
0.0
146
1.0
147
0.09
 71
     0
 72
     0
 73
     1
 74
     1
 75
     0
 76
     0
 77
     0
 78
     0
170
     0
171
     2
172
     0
173
     0
174
     0
175
     0
176
     0
177
     0
178
     0
  0
ENDTAB
  0
ENDSEC
  0
SECTION
  2
BLOCKS
  0
BLOCK
  8
0
  2
$MODEL_SPACE
 70
     0
 10
0.0
 20
0.0
 30
0.0
  3
$MODEL_SPACE
  1

  0
ENDBLK
  5
9
  8
0
  0
BLOCK
 67
     1
  8
0
  2
$PAPER_SPACE
 70
     0
 10
0.0
 20
0.0
 30
0.0
  3
$PAPER_SPACE
  1

  0
ENDBLK
  5
E
 67
     1
  8
0
  0
ENDSEC
  0
SECTION
  2
ENTITIES
  0
CIRCLE
  5
25
  8
0
 10
23.511300474452721
 20
23.511300474453002
 30
0.0
 40
2.7000000000000002
  0
CIRCLE
  5
26
  8
0
 10
-23.511300474452661
 20
23.51130047445309
 30
0.0
 40
2.7000000000000002
  0
LINE
  5
27
  8
0
 10
-28.249960200000061
 20
-25.749960199999428
 30
0.0
 11
-28.249960200000061
 21
25.74996020000048
 31
0.0
  0
LINE
  5
28
  8
0
 10
28.249960200000061
 20
25.74996020000037
 30
0.0
 11
28.249960199999951
 21
-25.74996019999946
 31
0.0
  0
LINE
  5
29
  8
MITTELLI
 10
0.0000000000000284
 20
-33.86142789403447
 30
0.0
 11
-0.0000000000000284
 21
34.148550534458082
 31
0.0
  0
LINE
  5
2C
  8
0
 10
-20.878491414974661
 20
-28.2499601999994
 30
0.0
 11
-25.618421965454981
 21
-31.757076419612069
 31
0.0
  0
CIRCLE
  5
2D
  8
0
 10
-23.511300474452781
 20
-23.511300474452291
 30
0.0
 40
2.7000000000000002
  0
LINE
  5
2E
  8
0
 10
-25.749960200000061
 20
-28.249960199999428
 30
0.0
 11
25.749960199999951
 21
-28.24996019999946
 31
0.0
  0
LINE
  5
2F
  8
MITTELLI
 10
-32.786923182120653
 20
0.000000000000399
 30
0.0
 11
32.612074441437549
 21
-0.0000000000003968
 31
0.0
  0
LINE
  5
30
  8
0
 10
-28.051581842148799
 20
-33.557392769732303
 30
0.0
 11
-40.293733022966897
 21
-17.011905608212938
 31
0.0
  0
LINE
  5
31
  8
0
 10
-25.618421965454981
 20
-31.757076419612069
 30
0.0
 11
-37.860573146272849
 21
-15.21158925809265
 31
0.0
  0
LINE
  5
32
  8
0
 10
-33.549337800549687
 20
-31.215852482387529
 30
0.0
 11
-39.662296817954058
 21
-22.954078595798389
 31
0.0
  0
ARC
  5
33
  8
0
 10
-25.930343163720661
 20
-19.1860885135521
 30
0.0
 40
13.27998518434897
 50
193.73314045132901
 51
239.2629869624437
  0
LINE
  5
34
  8
0
 10
-32.01703975969675
 20
-33.286780801119612
 30
0.0
 11
-33.549337800549687
 21
-31.215852482387529
 31
0.0
  0
LINE
  5
35
  8
0
 10
-31.116177923855641
 20
-29.415536132267221
 30
0.0
 11
-32.71772068839843
 21
-30.600531681487041
 31
0.0
  0
ARC
  5
36
  8
0
 10
-29.022674294039149
 20
-31.071223509675459
 30
0.0
 40
3.7249051871953922
 50
172.74050054153281
 51
260.2556268722447
  0
LINE
  5
37
  8
0
 10
-29.264971065479671
 20
-31.917475444744412
 30
0.0
 11
-26.831811188785501
 21
-30.117159094624238
 31
0.0
  0
LINE
  5
38
  8
0
 10
-29.653124606691701
 20
-34.742388318952493
 30
0.0
 11
-28.051581842148799
 21
-33.557392769732303
 31
0.0
  0
LINE
  5
39
  8
0
 10
-28.249960200000061
 20
-25.749960199999428
 30
0.0
 11
-25.749960200000061
 21
-28.249960199999428
 31
0.0
  0
LINE
  5
3A
  8
0
 10
-41.895275787509178
 20
-18.196901157432649
 30
0.0
 11
-40.293733022966897
 21
-17.011905608212938
 31
0.0
  0
LINE
  5
3B
  8
0
 10
-39.662296817954058
 20
-22.954078595798389
 30
0.0
 11
-41.194594858807498
 21
-20.883150277065742
 31
0.0
  0
ARC
  5
3C
  8
0
 10
-38.200229393150693
 20
-18.66759298562237
 30
0.0
 40
3.7249051871947061
 50
172.74050054151951
 51
260.25562687224817
  0
ARC
  5
3D
  8
0
 10
-38.200229393150693
 20
-18.66759298562237
 30
0.0
 40
3.7249051871947061
 50
172.74050054151951
 51
260.25562687224817
  0
LINE
  5
3E
  8
0
 10
-39.662296817954058
 20
-22.954078595798389
 30
0.0
 11
-41.194594858807498
 21
-20.883150277065742
 31
0.0
  0
LINE
  5
3F
  8
0
 10
-41.895275787509178
 20
-18.196901157432649
 30
0.0
 11
-40.293733022966897
 21
-17.011905608212938
 31
0.0
  0
LINE
  5
40
  8
0
 10
-41.895275787509178
 20
-18.196901157432649
 30
0.0
 11
-40.293733022966897
 21
-17.011905608212938
 31
0.0
  0
LINE
  5
41
  8
0
 10
-39.662296817954058
 20
-22.954078595798389
 30
0.0
 11
-41.194594858807498
 21
-20.883150277065742
 31
0.0
  0
ARC
  5
42
  8
0
 10
-38.200229393150693
 20
-18.66759298562237
 30
0.0
 40
3.7249051871947061
 50
172.74050054151951
 51
260.25562687224817
  0
LINE
  5
43
  8
0
 10
-37.860573146272849
 20
-15.21158925809265
 30
0.0
 11
-28.249960200000061
 21
-8.1006123808304533
 31
0.0
  0
LINE
  5
44
  8
0
 10
-37.22913694126018
 20
-21.153762245678141
 30
0.0
 11
-38.830679705802787
 21
-22.338757794898068
 31
0.0
  0
LINE
  5
45
  8
0
 10
-39.080343799636211
 20
-18.651822933200801
 30
0.0
 11
-36.647183922942098
 21
-16.851506583080571
 31
0.0
  0
ARC
  5
46
  8
0
 10
26.420036524692328
 20
-18.611392599828431
 30
0.0
 40
11.066654320290811
 50
302.07258874415038
 51
347.60243525526641
  0
LINE
  5
47
  8
0
 10
37.933409620309497
 20
-21.4838100348098
 30
0.0
 11
33.00113278661027
 21
-28.48548566962674
 31
0.0
  0
LINE
  5
48
  8
0
 10
36.281995638961149
 20
-15.06848402685776
 30
0.0
 11
26.404344162502671
 21
-29.090428456132621
 31
0.0
  0
LINE
  5
49
  8
0
 10
38.344046290325217
 20
-16.521079832219211
 30
0.0
 11
28.466394813866739
 21
-30.543024261494139
 31
0.0
  0
CIRCLE
  5
4A
  8
0
 10
23.5113004744526
 20
-23.51130047445238
 30
0.0
 40
2.7000000000000002
  0
LINE
  5
4B
  8
0
 10
25.749960199999951
 20
-28.24996019999946
 30
0.0
 11
28.249960199999951
 21
-25.74996019999946
 31
0.0
  0
LINE
  5
4C
  8
0
 10
26.404344162502671
 20
-29.090428456132621
 30
0.0
 11
25.211246875140802
 21
-28.24996019999946
 31
0.0
  0
ARC
  5
4D
  8
0
 10
29.2271288110264
 20
-28.452917474120571
 30
0.0
 40
3.1040876559955879
 50
281.07994883434242
 51
8.5950751650700408
  0
LINE
  5
4E
  8
0
 10
30.939082135246188
 20
-27.032889864265169
 30
0.0
 11
32.296355174492561
 21
-27.989010472764821
 31
0.0
  0
LINE
  5
4F
  8
0
 10
29.823667853112539
 20
-31.499144869993732
 30
0.0
 11
28.466394813866739
 21
-30.543024261494139
 31
0.0
  0
LINE
  5
50
  8
0
 10
29.445425024842301
 20
-29.153229607815799
 30
0.0
 11
27.38337437347846
 21
-27.700633802454171
 31
0.0
  0
LINE
  5
51
  8
0
 10
33.00113278661027
 20
-28.48548566962674
 30
0.0
 11
31.76478912592043
 21
-30.240552868241281
 31
0.0
  0
CIRCLE
  5
52
  8
0
 10
-0.0000000000000284
 20
0.0000000000003421
 30
0.0
 40
19.050000000000001
  0
CIRCLE
  5
53
  8
0
 10
-0.0000000000000284
 20
0.0000000000003421
 30
0.0
 40
3.1749999999999989
  0
LINE
  5
54
  8
0
 10
28.2499602
 20
-9.4103781120332979
 30
0.0
 11
36.281995638961149
 21
-15.068484026857639
 31
0.0
  0
LINE
  5
55
  8
0
 10
37.365016079349651
 20
-17.910874485897601
 30
0.0
 11
35.302965427985583
 21
-16.45827868053615
 31
0.0
  0
ARC
  5
56
  8
0
 10
36.632092966104459
 20
-17.941107442074429
 30
0.0
 40
3.1040876559961599
 50
281.07994883435271
 51
8.5950751650669233
  0
LINE
  5
57
  8
0
 10
35.87135896894565
 20
-20.031214229448231
 30
0.0
 11
37.228632008191788
 21
-20.987334837947881
 31
0.0
  0
LINE
  5
58
  8
0
 10
39.169753280999231
 20
-19.7287428361956
 30
0.0
 11
37.933409620309497
 21
-21.4838100348098
 31
0.0
  0
LINE
  5
59
  8
0
 10
-25.749960200000061
 20
28.24996020000048
 30
0.0
 11
25.749960200000061
 21
28.24996020000037
 31
0.0
  0
LINE
  5
5A
  8
0
 10
-25.749960200000061
 20
28.24996020000048
 30
0.0
 11
-28.249960200000061
 21
25.74996020000048
 31
0.0
  0
LINE
  5
5B
  8
0
 10
28.249960200000061
 20
25.74996020000037
 30
0.0
 11
25.749960200000061
 21
28.24996020000037
 31
0.0
  0
LINE
  5
5C
  8
0
 10
39.701319329571469
 20
-17.477200440719141
 30
0.0
 11
38.344046290325217
 21
-16.521079832219211
 31
0.0
  0
ENDSEC
  0
EOF
