  0
SECTION
  2
HEADER
  9
$ACADVER
  1
AC1009
  9
$INSBASE
 10
0.0
 20
0.0
 30
0.0
  9
$EXTMIN
 10
-34.25477586488023
 20
-53.747627337071997
 30
-0.0000000000019953
  9
$EXTMAX
 10
142.74204492978549
 20
43.010182496795892
 30
0.0000000000002957
  9
$LIMMIN
 10
0.0
 20
0.0
  9
$LIMMAX
 10
410.0
 20
287.0
  9
$ORTHOMODE
 70
     1
  9
$REGENMODE
 70
     1
  9
$FILLMODE
 70
     1
  9
$QTEXTMODE
 70
     0
  9
$MIRRTEXT
 70
     1
  9
$DRAGMODE
 70
     2
  9
$LTSCALE
 40
25.0
  9
$OSMODE
 70
    39
  9
$ATTMODE
 70
     1
  9
$TEXTSIZE
 40
5.0
  9
$TRACEWID
 40
0.6
  9
$TEXTSTYLE
  7
TEXT50
  9
$CLAYER
  8
0
  9
$CELTYPE
  6
BYLAYER
  9
$CECOLOR
 62
   256
  9
$DIMSCALE
 40
1.0
  9
$DIMASZ
 40
3.5
  9
$DIMEXO
 40
0.1
  9
$DIMDLI
 40
7.0
  9
$DIMRND
 40
0.0
  9
$DIMDLE
 40
0.0
  9
$DIMEXE
 40
1.8
  9
$DIMTP
 40
0.0
  9
$DIMTM
 40
0.0
  9
$DIMTXT
 40
3.5
  9
$DIMCEN
 40
1.5
  9
$DIMTSZ
 40
0.0
  9
$DIMTOL
 70
     0
  9
$DIMLIM
 70
     0
  9
$DIMTIH
 70
     0
  9
$DIMTOH
 70
     0
  9
$DIMSE1
 70
     0
  9
$DIMSE2
 70
     0
  9
$DIMTAD
 70
     1
  9
$DIMZIN
 70
     0
  9
$DIMBLK
  1

  9
$DIMASO
 70
     0
  9
$DIMSHO
 70
     1
  9
$DIMPOST
  1

  9
$DIMAPOST
  1

  9
$DIMALT
 70
     0
  9
$DIMALTD
 70
     2
  9
$DIMALTF
 40
25.399999999999999
  9
$DIMLFAC
 40
1.0
  9
$DIMTOFL
 70
     0
  9
$DIMTVP
 40
0.0
  9
$DIMTIX
 70
     0
  9
$DIMSOXD
 70
     0
  9
$DIMSAH
 70
     0
  9
$DIMBLK1
  1

  9
$DIMBLK2
  1

  9
$DIMSTYLE
  2
STANDARD
  9
$DIMCLRD
 70
     0
  9
$DIMCLRE
 70
     0
  9
$DIMCLRT
 70
     0
  9
$DIMTFAC
 40
1.0
  9
$DIMGAP
 40
0.09
  9
$LUNITS
 70
     2
  9
$LUPREC
 70
     1
  9
$SKETCHINC
 40
0.1
  9
$FILLETRAD
 40
0.0
  9
$AUNITS
 70
     0
  9
$AUPREC
 70
     0
  9
$MENU
  1
acad
  9
$ELEVATION
 40
0.0
  9
$PELEVATION
 40
0.0
  9
$THICKNESS
 40
0.0
  9
$LIMCHECK
 70
     0
  9
$BLIPMODE
 70
     0
  9
$CHAMFERA
 40
1.0
  9
$CHAMFERB
 40
1.0
  9
$SKPOLY
 70
     0
  9
$TDCREATE
 40
2449016.4831520831
  9
$TDUPDATE
 40
2452677.7433481482
  9
$TDINDWG
 40
0.125218831
  9
$TDUSRTIMER
 40
0.125218831
  9
$USRTIMER
 70
     1
  9
$ANGBASE
 50
0.0
  9
$ANGDIR
 70
     0
  9
$PDMODE
 70
     0
  9
$PDSIZE
 40
0.0
  9
$PLINEWID
 40
0.0
  9
$COORDS
 70
     0
  9
$SPLFRAME
 70
     0
  9
$SPLINETYPE
 70
     6
  9
$SPLINESEGS
 70
     8
  9
$ATTDIA
 70
     0
  9
$ATTREQ
 70
     1
  9
$HANDLING
 70
  4097
  9
$HANDSEED
  5
1BC
  9
$SURFTAB1
 70
     6
  9
$SURFTAB2
 70
     6
  9
$SURFTYPE
 70
     6
  9
$SURFU
 70
     6
  9
$SURFV
 70
     6
  9
$UCSNAME
  2

  9
$UCSORG
 10
0.0
 20
0.0
 30
0.0
  9
$UCSXDIR
 10
1.0
 20
0.0
 30
0.0
  9
$UCSYDIR
 10
0.0
 20
1.0
 30
0.0
  9
$PUCSNAME
  2

  9
$PUCSORG
 10
0.0
 20
0.0
 30
0.0
  9
$PUCSXDIR
 10
1.0
 20
0.0
 30
0.0
  9
$PUCSYDIR
 10
0.0
 20
1.0
 30
0.0
  9
$USERI1
 70
     0
  9
$USERI2
 70
     0
  9
$USERI3
 70
     0
  9
$USERI4
 70
     0
  9
$USERI5
 70
     0
  9
$USERR1
 40
0.0
  9
$USERR2
 40
0.0
  9
$USERR3
 40
0.0
  9
$USERR4
 40
0.0
  9
$USERR5
 40
0.0
  9
$WORLDVIEW
 70
     1
  9
$SHADEDGE
 70
     3
  9
$SHADEDIF
 70
    70
  9
$TILEMODE
 70
     1
  9
$MAXACTVP
 70
    48
  9
$PLIMCHECK
 70
     0
  9
$PEXTMIN
 10
1.0000000000000000E+020
 20
1.0000000000000000E+020
 30
1.0000000000000000E+020
  9
$PEXTMAX
 10
-1.0000000000000000E+020
 20
-1.0000000000000000E+020
 30
-1.0000000000000000E+020
  9
$PLIMMIN
 10
0.0
 20
0.0
  9
$PLIMMAX
 10
12.0
 20
9.0
  9
$UNITMODE
 70
     0
  9
$VISRETAIN
 70
     1
  9
$PLINEGEN
 70
     0
  9
$PSLTSCALE
 70
     0
  0
ENDSEC
  0
SECTION
  2
TABLES
  0
TABLE
  2
VPORT
 70
     3
  0
VPORT
  2
*ACTIVE
 70
     0
 10
0.0
 20
0.0
 11
1.0
 21
1.0
 12
54.243634532452631
 22
-5.368722420138055
 13
0.0
 23
0.0
 14
0.5
 24
0.5
 15
10.0
 25
10.0
 16
0.0
 26
0.0
 36
1.0
 17
0.0
 27
0.0
 37
0.0
 40
98.455315269549786
 41
2.126099706744867
 42
50.0
 43
0.0
 44
0.0
 50
0.0
 51
0.0
 71
     0
 72
   100
 73
     1
 74
     0
 75
     0
 76
     0
 77
     0
 78
     0
  0
ENDTAB
  0
TABLE
  2
LTYPE
 70
     2
  0
LTYPE
  2
CONTINUOUS
 70
     0
  3
Solid line
 72
    65
 73
     0
 40
0.0
  0
LTYPE
  2
MITTKLEIN
 70
     0
  3
__ . __ . ___ 
 72
    65
 73
     4
 40
0.45
 49
0.25
 49
-0.1
 49
0.0
 49
-0.1
  0
ENDTAB
  0
TABLE
  2
LAYER
 70
     2
  0
LAYER
  2
0
 70
     0
 62
     7
  6
CONTINUOUS
  0
LAYER
  2
MITTELLI
 70
     0
 62
     1
  6
MITTKLEIN
  0
ENDTAB
  0
TABLE
  2
STYLE
 70
     5
  0
STYLE
  2
TXT
 70
     0
 40
0.0
 41
1.0
 50
0.0
 71
     0
 42
2.5
  3
8txt
  4

  0
STYLE
  2
TEXT50
 70
     0
 40
5.0
 41
1.0
 50
0.0
 71
     0
 42
5.0
  3
8simplex
  4

  0
STYLE
  2
SIMPLEX
 70
     0
 40
0.0
 41
0.8
 50
0.0
 71
     0
 42
8.0
  3
simplex
  4

  0
STYLE
  2
STANDARD
 70
     0
 40
0.0
 41
1.0
 50
0.0
 71
     0
 42
2.5
  3
txt
  4

  0
STYLE
  2

 70
     0
 40
0.0
 41
0.0
 50
0.0
 71
     0
 42
0.0
  3
txt
  4

  0
ENDTAB
  0
TABLE
  2
VIEW
 70
     0
  0
ENDTAB
  0
TABLE
  2
UCS
 70
     0
  0
ENDTAB
  0
TABLE
  2
APPID
 70
     1
  0
APPID
  2
ACAD
 70
     0
  0
ENDTAB
  0
TABLE
  2
DIMSTYLE
 70
     1
  0
DIMSTYLE
  2
STANDARD
 70
     0
  3

  4

  5

  6

  7

 40
1.0
 41
0.18
 42
0.0625
 43
0.38
 44
0.18
 45
0.0
 46
0.0
 47
0.0
 48
0.0
140
0.18
141
0.09
142
0.0
143
25.399999999999999
144
1.0
145
0.0
146
1.0
147
0.09
 71
     0
 72
     0
 73
     1
 74
     1
 75
     0
 76
     0
 77
     0
 78
     0
170
     0
171
     2
172
     0
173
     0
174
     0
175
     0
176
     0
177
     0
178
     0
  0
ENDTAB
  0
ENDSEC
  0
SECTION
  2
BLOCKS
  0
BLOCK
  8
0
  2
$MODEL_SPACE
 70
     0
 10
0.0
 20
0.0
 30
0.0
  3
$MODEL_SPACE
  1

  0
ENDBLK
  5
9
  8
0
  0
BLOCK
 67
     1
  8
0
  2
$PAPER_SPACE
 70
     0
 10
0.0
 20
0.0
 30
0.0
  3
$PAPER_SPACE
  1

  0
ENDBLK
  5
E
 67
     1
  8
0
  0
ENDSEC
  0
SECTION
  2
ENTITIES
  0
LINE
  5
25
  8
0
 10
108.0176527108536
 20
-43.000000000000057
 30
0.0
 11
0.0
 21
-42.999999999999943
 31
0.0
  0
LINE
  5
26
  8
MITTELLI
 10
142.70939902040871
 20
0.0000000000000284
 30
0.0
 11
-34.226853265501397
 21
0.0000000000000012
 31
0.0
  0
LINE
  5
29
  8
0
 10
136.1999999999999
 20
43.000000000000107
 30
0.0
 11
0.0
 21
42.999999999999943
 31
0.0
  0
LINE
  5
2A
  8
0
 10
85.199999999999804
 20
42.999999999999943
 30
0.0
 11
85.199999999999804
 21
-42.999999999999979
 31
0.0
  0
LINE
  5
2B
  8
0
 10
5.6999999999998181
 20
42.999999999999943
 30
0.0
 11
5.6999999999998181
 21
-43.0
 31
0.0
  0
LINE
  5
2C
  8
0
 10
0.0
 20
42.999999999999943
 30
0.0
 11
0.0
 21
-42.999999999999943
 31
0.0
  0
LINE
  5
2D
  8
0
 10
-1.5
 20
36.5
 30
0.0
 11
-1.5
 21
-36.5
 31
0.0
  0
TEXT
  5
2E
  8
0
 10
9.4634978705873891
 20
-38.719024203175302
 30
0.0
 40
3.2000000000000002
  1
SM 87.2.18 H200
  7
SIMPLEX
  0
LINE
  5
30
  8
0
 10
-1.5
 20
-36.5
 30
0.0
 11
0.0
 21
-36.5
 31
0.0
  0
LINE
  5
31
  8
0
 10
-1.5
 20
5.0
 30
0.0
 11
-30.5
 21
5.0
 31
0.0
  0
LINE
  5
32
  8
0
 10
-1.5
 20
-5.0
 30
0.0
 11
-30.5
 21
-5.0
 31
0.0
  0
LINE
  5
33
  8
0
 10
-30.5
 20
5.0
 30
0.0
 11
-31.5
 21
4.0
 31
0.0
  0
LINE
  5
34
  8
0
 10
-30.5
 20
5.0
 30
0.0
 11
-30.5
 21
-5.0
 31
0.0
  0
LINE
  5
35
  8
0
 10
-30.5
 20
-5.0
 30
0.0
 11
-31.5
 21
-4.0
 31
0.0
  0
LINE
  5
36
  8
0
 10
-31.5
 20
4.0
 30
0.0
 11
-31.5
 21
-4.0
 31
0.0
  0
LINE
  5
37
  8
0
 10
-1.5
 20
36.5
 30
0.0
 11
0.0
 21
36.5
 31
0.0
  0
LINE
  5
38
  8
0
 10
133.1999999999999
 20
42.999999999999943
 30
0.0
 11
133.1999999999999
 21
-42.999999999999979
 31
0.0
  0
LINE
  5
39
  8
0
 10
136.1999999999999
 20
43.000000000000107
 30
0.0
 11
136.1999999999999
 21
-43.000000000000057
 31
0.0
  0
LINE
  5
7B
  8
0
 10
136.1999999999999
 20
-43.000000000000057
 30
0.0
 11
128.95780038807359
 21
-43.000000000000057
 31
0.0
  0
LINE
  5
7C
  8
0
 10
136.1999999999999
 20
-43.000000000000043
 30
0.0
 11
133.1999999999999
 21
-43.000000000000043
 31
0.0
  0
LINE
  5
7D
  8
0
 10
138.6999999999999
 20
-39.879100808545267
 30
0.0
 11
138.6999999999999
 21
-38.5
 31
0.0
  0
ARC
  5
7E
  8
0
 10
138.1999999999999
 20
-36.120899191454697
 30
0.0
 40
0.5
 50
0.0
 51
86.566369637550423
  0
LINE
  5
7F
  8
0
 10
138.6999999999999
 20
-36.120899191454697
 30
0.0
 11
138.6999999999999
 21
-37.499999999999972
 31
0.0
  0
ARC
  5
80
  8
0
 10
138.1999999999999
 20
-39.879100808545267
 30
0.0
 40
0.5
 50
273.43363036244961
 51
0.0
  0
LINE
  5
81
  8
0
 10
137.6999999999999
 20
-38.5
 30
0.0
 11
137.6999999999999
 21
-37.5
 31
0.0
  0
LINE
  5
82
  8
0
 10
138.2299461453639
 20
-40.37820323127815
 30
0.0
 11
136.1999999999999
 21
-40.499999999999993
 31
0.0
  0
LINE
  5
83
  8
0
 10
138.6999999999999
 20
-38.5
 30
0.0
 11
137.6999999999999
 21
-38.5
 31
0.0
  0
LINE
  5
84
  8
0
 10
138.6999999999999
 20
-37.5
 30
0.0
 11
137.6999999999999
 21
-37.5
 31
0.0
  0
LINE
  5
85
  8
0
 10
138.2299461453639
 20
-35.621796768721822
 30
0.0
 11
136.1999999999999
 21
-35.499999999999972
 31
0.0
  0
ARC
  5
86
  8
0
 10
138.1999999999999
 20
39.879100808545267
 30
0.0
 40
0.5
 50
0.0
 51
86.566369637550423
  0
LINE
  5
87
  8
0
 10
138.6999999999999
 20
36.120899191454697
 30
0.0
 11
138.6999999999999
 21
37.499999999999972
 31
0.0
  0
ARC
  5
88
  8
0
 10
138.1999999999999
 20
36.120899191454697
 30
0.0
 40
0.5
 50
273.43363036244961
 51
0.0
  0
LINE
  5
89
  8
0
 10
138.6999999999999
 20
39.879100808545267
 30
0.0
 11
138.6999999999999
 21
38.5
 31
0.0
  0
LINE
  5
8A
  8
0
 10
137.6999999999999
 20
38.5
 30
0.0
 11
137.6999999999999
 21
37.5
 31
0.0
  0
LINE
  5
8B
  8
0
 10
138.2299461453639
 20
35.621796768721822
 30
0.0
 11
136.1999999999999
 21
35.499999999999972
 31
0.0
  0
LINE
  5
8C
  8
0
 10
138.6999999999999
 20
37.5
 30
0.0
 11
137.6999999999999
 21
37.5
 31
0.0
  0
LINE
  5
8D
  8
0
 10
138.6999999999999
 20
38.5
 30
0.0
 11
137.6999999999999
 21
38.5
 31
0.0
  0
LINE
  5
8E
  8
0
 10
138.2299461453639
 20
40.37820323127815
 30
0.0
 11
136.1999999999999
 21
40.499999999999993
 31
0.0
  0
ARC
  5
167
  8
0
 10
118.59697997255179
 20
-57.16085934332898
 30
0.0
 40
14.93141625830204
 50
56.894423584626963
 51
123.1055764153712
  0
ARC
  5
168
  8
0
 10
118.4877265494637
 20
-57.192137778978342
 30
0.0
 40
17.005580066645241
 50
54.200970993750452
 51
125.7990290062495
  0
LINE
  5
169
  8
0
 10
108.0176527108536
 20
-44.841823036288652
 30
0.0
 11
108.0176527108536
 21
-33.625916632134249
 31
0.0
  0
LINE
  5
16A
  8
0
 10
128.95780038807359
 20
-33.625916632134661
 30
0.0
 11
128.95780038807359
 21
-44.653326147505709
 31
0.0
  0
ARC
  5
16B
  8
0
 10
118.4877265494636
 20
-43.225102381545163
 30
0.0
 40
8.6696087345522432
 50
245.3219483027552
 51
294.6780516972446
  0
ARC
  5
16C
  8
0
 10
118.4877265494636
 20
-58.147022374327243
 30
0.0
 40
8.5330334904247067
 50
65.122103603562763
 51
114.87789639643719
  0
LINE
  5
16D
  8
0
 10
118.4877265494614
 20
-53.736398831964209
 30
0.0
 11
112.25315830118041
 21
-52.832361296403697
 31
0.0
  0
LINE
  5
16E
  8
0
 10
118.4877265494614
 20
-47.658817774853283
 30
0.0
 11
112.25315830118041
 21
-48.562855310413859
 31
0.0
  0
LINE
  5
16F
  8
0
 10
118.4877265494636
 20
-43.948394907271798
 30
0.0
 11
112.25315830118259
 21
-44.852432442832367
 31
0.0
  0
ARC
  5
170
  8
0
 10
110.396919937744
 20
-44.888132888009572
 30
0.0
 40
2.3797178696897441
 50
141.27305377249331
 51
241.89179587316031
  0
LINE
  5
171
  8
0
 10
109.27574397438831
 20
-50.697608303408749
 30
0.0
 11
109.27574397438811
 21
-46.987185435828863
 31
0.0
  0
LINE
  5
172
  8
0
 10
112.25315830118041
 20
-48.562855310413859
 30
0.0
 11
109.275743974386
 21
-50.697608303410277
 31
0.0
  0
LINE
  5
173
  8
0
 10
112.25315830118009
 20
-52.832361296406773
 30
0.0
 11
109.275743974386
 21
-50.697608303410277
 31
0.0
  0
ARC
  5
174
  8
0
 10
115.1243157374859
 20
-50.764735127133207
 30
0.0
 40
0.4243268062755158
 50
122.23224679872889
 51
232.8392969757243
  0
LINE
  5
175
  8
0
 10
112.25315830118259
 20
-44.852432442832367
 30
0.0
 11
109.27574397438811
 21
-46.987185435828863
 31
0.0
  0
LINE
  5
176
  8
0
 10
110.4416869162561
 20
-46.151225132146301
 30
0.0
 11
110.4416869162561
 21
-44.653326147505709
 31
0.0
  0
LINE
  5
177
  8
0
 10
112.25315830118259
 20
-44.852432442832367
 30
0.0
 11
112.25315830118259
 21
-48.562855310413518
 31
0.0
  0
LINE
  5
178
  8
0
 10
124.7222947977446
 20
-44.852432442832367
 30
0.0
 11
127.699709124539
 21
-46.987185435828863
 31
0.0
  0
LINE
  5
179
  8
0
 10
124.7222947977469
 20
-52.832361296403697
 30
0.0
 11
127.6997091245413
 21
-50.697608303407222
 31
0.0
  0
LINE
  5
17A
  8
0
 10
124.7222947977469
 20
-48.562855310413859
 30
0.0
 11
127.6997091245413
 21
-50.697608303410277
 31
0.0
  0
LINE
  5
17B
  8
0
 10
118.48772654946571
 20
-53.736398831964209
 30
0.0
 11
124.7222947977469
 21
-52.832361296403697
 31
0.0
  0
ARC
  5
17C
  8
0
 10
121.8511373614413
 20
-50.764735127133207
 30
0.0
 40
0.4243268062755158
 50
307.16070302427562
 51
57.767753201270999
  0
LINE
  5
17D
  8
0
 10
118.48772654946571
 20
-47.658817774853283
 30
0.0
 11
124.7222947977469
 21
-48.562855310413859
 31
0.0
  0
LINE
  5
17E
  8
0
 10
118.4877265494636
 20
-43.948394907271798
 30
0.0
 11
124.7222947977446
 21
-44.852432442832367
 31
0.0
  0
LINE
  5
17F
  8
0
 10
118.4877265494636
 20
-43.948394907271798
 30
0.0
 11
118.4877265494636
 21
-47.658817774852992
 31
0.0
  0
LINE
  5
180
  8
0
 10
124.7222947977446
 20
-44.852432442832367
 30
0.0
 11
124.7222947977446
 21
-48.562855310413518
 31
0.0
  0
LINE
  5
181
  8
0
 10
127.6997091245413
 20
-50.697608303407222
 30
0.0
 11
127.699709124539
 21
-46.987185435828863
 31
0.0
  0
ARC
  5
182
  8
0
 10
126.5785329531009
 20
-44.888132845362698
 30
0.0
 40
2.3797180053420761
 50
298.10820806217282
 51
38.726942292199382
  0
LINE
  5
183
  8
0
 10
126.7522730288479
 20
-46.151225132146301
 30
0.0
 11
126.7522730288479
 21
-44.653326147505709
 31
0.0
  0
ARC
  5
184
  8
0
 10
118.4877265494635
 20
-40.650378869081919
 30
0.0
 40
12.60815275542957
 50
33.857998802880211
 51
146.14200119711711
  0
ENDSEC
  0
EOF
