  0
SECTION
  2
HEADER
  9
$ACADVER
  1
AC1009
  9
$INSBASE
 10
0.0
 20
0.0
 30
0.0
  9
$EXTMIN
 10
-42.127346048298818
 20
-64.411764705882931
 30
0.0
  9
$EXTMAX
 10
143.63415604558691
 20
42.999999999999979
 30
0.0
  9
$LIMMIN
 10
0.0
 20
0.0
  9
$LIMMAX
 10
410.0
 20
287.0
  9
$ORTHOMODE
 70
     1
  9
$REGENMODE
 70
     1
  9
$FILLMODE
 70
     1
  9
$QTEXTMODE
 70
     0
  9
$MIRRTEXT
 70
     1
  9
$DRAGMODE
 70
     2
  9
$LTSCALE
 40
25.0
  9
$OSMODE
 70
   309
  9
$ATTMODE
 70
     1
  9
$TEXTSIZE
 40
5.0
  9
$TRACEWID
 40
0.6
  9
$TEXTSTYLE
  7
TEXT50
  9
$CLAYER
  8
0
  9
$CELTYPE
  6
BYLAYER
  9
$CECOLOR
 62
   256
  9
$DIMSCALE
 40
1.0
  9
$DIMASZ
 40
3.5
  9
$DIMEXO
 40
0.1
  9
$DIMDLI
 40
7.0
  9
$DIMRND
 40
0.0
  9
$DIMDLE
 40
0.0
  9
$DIMEXE
 40
1.8
  9
$DIMTP
 40
0.0
  9
$DIMTM
 40
0.0
  9
$DIMTXT
 40
3.5
  9
$DIMCEN
 40
1.5
  9
$DIMTSZ
 40
0.0
  9
$DIMTOL
 70
     0
  9
$DIMLIM
 70
     0
  9
$DIMTIH
 70
     0
  9
$DIMTOH
 70
     0
  9
$DIMSE1
 70
     0
  9
$DIMSE2
 70
     0
  9
$DIMTAD
 70
     1
  9
$DIMZIN
 70
     0
  9
$DIMBLK
  1

  9
$DIMASO
 70
     0
  9
$DIMSHO
 70
     1
  9
$DIMPOST
  1

  9
$DIMAPOST
  1

  9
$DIMALT
 70
     0
  9
$DIMALTD
 70
     2
  9
$DIMALTF
 40
25.399999999999999
  9
$DIMLFAC
 40
1.0
  9
$DIMTOFL
 70
     0
  9
$DIMTVP
 40
0.0
  9
$DIMTIX
 70
     0
  9
$DIMSOXD
 70
     0
  9
$DIMSAH
 70
     0
  9
$DIMBLK1
  1

  9
$DIMBLK2
  1

  9
$DIMSTYLE
  2
STANDARD
  9
$DIMCLRD
 70
     0
  9
$DIMCLRE
 70
     0
  9
$DIMCLRT
 70
     0
  9
$DIMTFAC
 40
1.0
  9
$DIMGAP
 40
0.09
  9
$LUNITS
 70
     2
  9
$LUPREC
 70
     1
  9
$SKETCHINC
 40
0.1
  9
$FILLETRAD
 40
0.0
  9
$AUNITS
 70
     0
  9
$AUPREC
 70
     0
  9
$MENU
  1
acad
  9
$ELEVATION
 40
0.0
  9
$PELEVATION
 40
0.0
  9
$THICKNESS
 40
0.0
  9
$LIMCHECK
 70
     0
  9
$BLIPMODE
 70
     0
  9
$CHAMFERA
 40
1.0
  9
$CHAMFERB
 40
1.0
  9
$SKPOLY
 70
     0
  9
$TDCREATE
 40
2449016.4831520831
  9
$TDUPDATE
 40
2452651.5075418279
  9
$TDINDWG
 40
0.1502661921
  9
$TDUSRTIMER
 40
0.1502661921
  9
$USRTIMER
 70
     1
  9
$ANGBASE
 50
0.0
  9
$ANGDIR
 70
     0
  9
$PDMODE
 70
     0
  9
$PDSIZE
 40
0.0
  9
$PLINEWID
 40
0.0
  9
$COORDS
 70
     0
  9
$SPLFRAME
 70
     0
  9
$SPLINETYPE
 70
     6
  9
$SPLINESEGS
 70
     8
  9
$ATTDIA
 70
     0
  9
$ATTREQ
 70
     1
  9
$HANDLING
 70
  4097
  9
$HANDSEED
  5
9B
  9
$SURFTAB1
 70
     6
  9
$SURFTAB2
 70
     6
  9
$SURFTYPE
 70
     6
  9
$SURFU
 70
     6
  9
$SURFV
 70
     6
  9
$UCSNAME
  2

  9
$UCSORG
 10
0.0
 20
0.0
 30
0.0
  9
$UCSXDIR
 10
1.0
 20
0.0
 30
0.0
  9
$UCSYDIR
 10
0.0
 20
1.0
 30
0.0
  9
$PUCSNAME
  2

  9
$PUCSORG
 10
0.0
 20
0.0
 30
0.0
  9
$PUCSXDIR
 10
1.0
 20
0.0
 30
0.0
  9
$PUCSYDIR
 10
0.0
 20
1.0
 30
0.0
  9
$USERI1
 70
     0
  9
$USERI2
 70
     0
  9
$USERI3
 70
     0
  9
$USERI4
 70
     0
  9
$USERI5
 70
     0
  9
$USERR1
 40
0.0
  9
$USERR2
 40
0.0
  9
$USERR3
 40
0.0
  9
$USERR4
 40
0.0
  9
$USERR5
 40
0.0
  9
$WORLDVIEW
 70
     1
  9
$SHADEDGE
 70
     3
  9
$SHADEDIF
 70
    70
  9
$TILEMODE
 70
     1
  9
$MAXACTVP
 70
    48
  9
$PLIMCHECK
 70
     0
  9
$PEXTMIN
 10
1.0000000000000000E+020
 20
1.0000000000000000E+020
 30
1.0000000000000000E+020
  9
$PEXTMAX
 10
-1.0000000000000000E+020
 20
-1.0000000000000000E+020
 30
-1.0000000000000000E+020
  9
$PLIMMIN
 10
0.0
 20
0.0
  9
$PLIMMAX
 10
12.0
 20
9.0
  9
$UNITMODE
 70
     0
  9
$VISRETAIN
 70
     1
  9
$PLINEGEN
 70
     0
  9
$PSLTSCALE
 70
     0
  0
ENDSEC
  0
SECTION
  2
TABLES
  0
TABLE
  2
VPORT
 70
     3
  0
VPORT
  2
*ACTIVE
 70
     0
 10
0.0
 20
0.0
 11
1.0
 21
1.0
 12
50.742333155706611
 22
-10.69773894691866
 13
0.0
 23
0.0
 14
0.5
 24
0.5
 15
10.0
 25
10.0
 16
0.0
 26
0.0
 36
1.0
 17
0.0
 27
0.0
 37
0.0
 40
109.2577635625419
 41
2.0422535211267601
 42
50.0
 43
0.0
 44
0.0
 50
0.0
 51
0.0
 71
     0
 72
   100
 73
     1
 74
     0
 75
     0
 76
     0
 77
     0
 78
     0
  0
ENDTAB
  0
TABLE
  2
LTYPE
 70
     2
  0
LTYPE
  2
CONTINUOUS
 70
     0
  3
Solid line
 72
    65
 73
     0
 40
0.0
  0
LTYPE
  2
MITTKLEIN
 70
     0
  3
__ . __ . ___ 
 72
    65
 73
     4
 40
0.45
 49
0.25
 49
-0.1
 49
0.0
 49
-0.1
  0
ENDTAB
  0
TABLE
  2
LAYER
 70
     2
  0
LAYER
  2
0
 70
     0
 62
     7
  6
CONTINUOUS
  0
LAYER
  2
MITTELLI
 70
     0
 62
     1
  6
MITTKLEIN
  0
ENDTAB
  0
TABLE
  2
STYLE
 70
     3
  0
STYLE
  2
TXT
 70
     0
 40
0.0
 41
1.0
 50
0.0
 71
     0
 42
2.5
  3
8txt
  4

  0
STYLE
  2
TEXT50
 70
     0
 40
5.0
 41
1.0
 50
0.0
 71
     0
 42
5.0
  3
8simplex
  4

  0
STYLE
  2
SIMPLEX
 70
     0
 40
0.0
 41
0.8
 50
0.0
 71
     0
 42
8.0
  3
simplex
  4

  0
ENDTAB
  0
TABLE
  2
VIEW
 70
     0
  0
ENDTAB
  0
TABLE
  2
UCS
 70
     0
  0
ENDTAB
  0
TABLE
  2
APPID
 70
     1
  0
APPID
  2
ACAD
 70
     0
  0
ENDTAB
  0
TABLE
  2
DIMSTYLE
 70
     1
  0
DIMSTYLE
  2
STANDARD
 70
     0
  3

  4

  5

  6

  7

 40
1.0
 41
0.18
 42
0.0625
 43
0.38
 44
0.18
 45
0.0
 46
0.0
 47
0.0
 48
0.0
140
0.18
141
0.09
142
0.0
143
25.399999999999999
144
1.0
145
0.0
146
1.0
147
0.09
 71
     0
 72
     0
 73
     1
 74
     1
 75
     0
 76
     0
 77
     0
 78
     0
170
     0
171
     2
172
     0
173
     0
174
     0
175
     0
176
     0
177
     0
178
     0
  0
ENDTAB
  0
ENDSEC
  0
SECTION
  2
BLOCKS
  0
BLOCK
  8
0
  2
$MODEL_SPACE
 70
     0
 10
0.0
 20
0.0
 30
0.0
  3
$MODEL_SPACE
  1

  0
ENDBLK
  5
46
  8
0
  0
BLOCK
 67
     1
  8
0
  2
$PAPER_SPACE
 70
     0
 10
0.0
 20
0.0
 30
0.0
  3
$PAPER_SPACE
  1

  0
ENDBLK
  5
4C
 67
     1
  8
0
  0
ENDSEC
  0
SECTION
  2
ENTITIES
  0
LINE
  5
3
  8
MITTELLI
 10
143.63415604558691
 20
-0.0000000000000413
 30
0.0
 11
-42.127346048298818
 21
0.0
 31
0.0
  0
LINE
  5
A
  8
0
 10
138.4999999999998
 20
42.999999999999979
 30
0.0
 11
0.0
 21
42.999999999999893
 31
0.0
  0
LINE
  5
D
  8
0
 10
0.0
 20
42.999999999999893
 30
0.0
 11
-0.0000000000001137
 21
-43.0
 31
0.0
  0
LINE
  5
E
  8
0
 10
-1.500000000000113
 20
36.5
 30
0.0
 11
-1.500000000000113
 21
-36.5
 31
0.0
  0
LINE
  5
F
  8
0
 10
-1.500000000000113
 20
6.0
 30
0.0
 11
-30.50000000000011
 21
6.0
 31
0.0
  0
LINE
  5
10
  8
0
 10
-1.500000000000113
 20
-6.0
 30
0.0
 11
-30.50000000000011
 21
-6.0
 31
0.0
  0
LINE
  5
11
  8
0
 10
-30.50000000000011
 20
6.0
 30
0.0
 11
-30.50000000000011
 21
-6.0
 31
0.0
  0
LINE
  5
12
  8
0
 10
-31.50000000000011
 20
5.0
 30
0.0
 11
-31.50000000000011
 21
-5.0
 31
0.0
  0
LINE
  5
13
  8
0
 10
-30.50000000000011
 20
-6.0
 30
0.0
 11
-31.50000000000011
 21
-5.0
 31
0.0
  0
LINE
  5
14
  8
0
 10
-30.50000000000011
 20
6.0
 30
0.0
 11
-31.50000000000011
 21
5.0
 31
0.0
  0
LINE
  5
15
  8
0
 10
105.9999999999998
 20
-43.000000000000149
 30
0.0
 11
-0.0000000000001137
 21
-43.0
 31
0.0
  0
TEXT
  5
16
  8
0
 10
11.543676545095421
 20
-38.719024203175302
 30
0.0
 40
3.2000000000000002
  1
SM 88.1.18 M B
  7
SIMPLEX
  0
LINE
  5
18
  8
0
 10
-1.500000000000113
 20
-36.5
 30
0.0
 11
-0.0000000000001137
 21
-36.5
 31
0.0
  0
LINE
  5
19
  8
0
 10
-1.500000000000113
 20
36.5
 30
0.0
 11
-0.0000000000001137
 21
36.5
 31
0.0
  0
LINE
  5
1A
  8
0
 10
7.0
 20
42.999999999999879
 30
0.0
 11
6.9999999999998863
 21
-43.0
 31
0.0
  0
LINE
  5
1B
  8
0
 10
60.999999999999879
 20
42.999999999999872
 30
0.0
 11
60.999999999999879
 21
-43.000000000000057
 31
0.0
  0
LINE
  5
1C
  8
0
 10
105.9999999999998
 20
42.999999999999829
 30
0.0
 11
105.9999999999998
 21
-45.000000000000099
 31
0.0
  0
LINE
  5
1D
  8
0
 10
135.4999999999998
 20
42.999999999999829
 30
0.0
 11
135.4999999999998
 21
-45.000000000000099
 31
0.0
  0
LINE
  5
1E
  8
0
 10
138.4999999999998
 20
42.999999999999979
 30
0.0
 11
138.4999999999998
 21
-43.000000000000142
 31
0.0
  0
LINE
  5
1F
  8
0
 10
63.999999999999879
 20
42.999999999999829
 30
0.0
 11
63.999999999999879
 21
-43.000000000000092
 31
0.0
  0
LINE
  5
20
  8
0
 10
135.4999999999998
 20
-45.000000000000099
 30
0.0
 11
105.9999999999998
 21
-45.000000000000099
 31
0.0
  0
LINE
  5
21
  8
0
 10
132.90672307081951
 20
-43.000000000000142
 30
0.0
 11
108.5814831658394
 21
-43.000000000000121
 31
0.0
  0
LINE
  5
22
  8
0
 10
131.7499999999998
 20
-57.941176470588282
 30
0.0
 11
109.7499999999998
 21
-57.941176470588282
 31
0.0
  0
LINE
  5
23
  8
0
 10
131.7499999999998
 20
-61.17647058823534
 30
0.0
 11
109.7499999999998
 21
-61.17647058823534
 31
0.0
  0
ARC
  5
24
  8
0
 10
120.7499999999997
 20
-50.216931461690159
 30
0.0
 40
14.194833244192219
 50
247.2350767444407
 51
292.76492325555921
  0
LINE
  5
25
  8
0
 10
126.2427069759445
 20
-64.411764705882405
 30
0.0
 11
115.2572930240552
 21
-64.411764705882405
 31
0.0
  0
LINE
  5
26
  8
0
 10
109.7499999999998
 20
-57.941176470588282
 30
0.0
 11
109.7499999999998
 21
-45.00000000000005
 31
0.0
  0
ARC
  5
27
  8
0
 10
112.5036465120276
 20
-60.430253638764341
 30
0.0
 40
3.981511067118523
 50
226.24243683463359
 51
313.75756316536399
  0
LINE
  5
28
  8
0
 10
109.7499999999998
 20
-63.305990286021938
 30
0.0
 11
109.7499999999998
 21
-61.17647058823534
 31
0.0
  0
LINE
  5
29
  8
0
 10
115.2572930240552
 20
-64.411764705882405
 30
0.0
 11
112.5036465120275
 21
-64.411764705882405
 31
0.0
  0
LINE
  5
2A
  8
0
 10
111.93054511163859
 20
-61.17647058823534
 30
0.0
 11
111.93054511163859
 21
-57.941176470588282
 31
0.0
  0
LINE
  5
2B
  8
0
 10
138.4999999999998
 20
-43.000000000000142
 30
0.0
 11
135.4999999999998
 21
-43.000000000000142
 31
0.0
  0
LINE
  5
2C
  8
0
 10
131.7499999999998
 20
-45.00000000000005
 30
0.0
 11
131.7499999999998
 21
-57.941176470588282
 31
0.0
  0
ARC
  5
2D
  8
0
 10
128.99635348797159
 20
-60.430253638763318
 30
0.0
 40
3.9815110671192571
 50
226.24243683464479
 51
313.75756316535728
  0
LINE
  5
2E
  8
0
 10
126.2427069759445
 20
-61.17647058823534
 30
0.0
 11
126.2427069759445
 21
-63.305990286022393
 31
0.0
  0
LINE
  5
2F
  8
0
 10
128.99635348797159
 20
-64.411764705882405
 30
0.0
 11
126.2427069759445
 21
-64.411764705882405
 31
0.0
  0
LINE
  5
30
  8
0
 10
131.7499999999998
 20
-63.30599028602267
 30
0.0
 11
131.7499999999998
 21
-61.17647058823534
 31
0.0
  0
LINE
  5
31
  8
0
 10
129.56945488836101
 20
-61.17647058823534
 30
0.0
 11
129.56945488836101
 21
-57.941176470588282
 31
0.0
  0
LINE
  5
32
  8
0
 10
140.52994614536379
 20
-35.621796768721921
 30
0.0
 11
138.4999999999998
 21
-35.500000000000071
 31
0.0
  0
LINE
  5
33
  8
0
 10
140.9999999999998
 20
-37.500000000000099
 30
0.0
 11
139.9999999999998
 21
-37.500000000000099
 31
0.0
  0
LINE
  5
34
  8
0
 10
140.9999999999998
 20
-38.500000000000099
 30
0.0
 11
139.9999999999998
 21
-38.500000000000099
 31
0.0
  0
LINE
  5
35
  8
0
 10
140.52994614536379
 20
-40.378203231278249
 30
0.0
 11
138.4999999999998
 21
-40.500000000000099
 31
0.0
  0
LINE
  5
36
  8
0
 10
139.9999999999998
 20
-38.500000000000099
 30
0.0
 11
139.9999999999998
 21
-37.500000000000099
 31
0.0
  0
ARC
  5
37
  8
0
 10
140.4999999999998
 20
-39.879100808545381
 30
0.0
 40
0.5
 50
273.43363036244961
 51
0.0
  0
LINE
  5
38
  8
0
 10
140.9999999999998
 20
-36.120899191454797
 30
0.0
 11
140.9999999999998
 21
-37.500000000000071
 31
0.0
  0
ARC
  5
39
  8
0
 10
140.4999999999998
 20
-36.120899191454797
 30
0.0
 40
0.5
 50
0.0
 51
86.566369637550437
  0
LINE
  5
3A
  8
0
 10
140.9999999999998
 20
-39.879100808545381
 30
0.0
 11
140.9999999999998
 21
-38.500000000000099
 31
0.0
  0
LINE
  5
3B
  8
0
 10
139.9999999999998
 20
38.499999999999893
 30
0.0
 11
139.9999999999998
 21
37.499999999999893
 31
0.0
  0
LINE
  5
3C
  8
0
 10
140.9999999999998
 20
37.499999999999893
 30
0.0
 11
139.9999999999998
 21
37.499999999999893
 31
0.0
  0
LINE
  5
3D
  8
0
 10
140.9999999999998
 20
36.12089919145459
 30
0.0
 11
140.9999999999998
 21
37.499999999999858
 31
0.0
  0
LINE
  5
3E
  8
0
 10
140.52994614536379
 20
35.621796768721708
 30
0.0
 11
138.4999999999998
 21
35.499999999999858
 31
0.0
  0
ARC
  5
3F
  8
0
 10
140.4999999999998
 20
36.12089919145459
 30
0.0
 40
0.5
 50
273.43363036244961
 51
0.0
  0
LINE
  5
40
  8
0
 10
140.52994614536379
 20
40.378203231278043
 30
0.0
 11
138.4999999999998
 21
40.499999999999893
 31
0.0
  0
LINE
  5
41
  8
0
 10
140.9999999999998
 20
38.499999999999893
 30
0.0
 11
139.9999999999998
 21
38.499999999999893
 31
0.0
  0
LINE
  5
42
  8
0
 10
140.9999999999998
 20
39.879100808545168
 30
0.0
 11
140.9999999999998
 21
38.499999999999893
 31
0.0
  0
ARC
  5
43
  8
0
 10
140.4999999999998
 20
39.879100808545168
 30
0.0
 40
0.5
 50
0.0
 51
86.566369637550437
  0
ENDSEC
  0
EOF
