  0
SECTION
  2
HEADER
  9
$ACADVER
  1
AC1009
  9
$INSBASE
 10
0.0
 20
0.0
 30
0.0
  9
$EXTMIN
 10
-36.532578405710517
 20
-64.433211868713897
 30
-0.0000000349181948
  9
$EXTMAX
 10
175.65097043305849
 20
43.000100065843071
 30
0.0000000814935746
  9
$LIMMIN
 10
0.0
 20
0.0
  9
$LIMMAX
 10
410.0
 20
287.0
  9
$ORTHOMODE
 70
     1
  9
$REGENMODE
 70
     1
  9
$FILLMODE
 70
     1
  9
$QTEXTMODE
 70
     0
  9
$MIRRTEXT
 70
     1
  9
$DRAGMODE
 70
     2
  9
$LTSCALE
 40
25.0
  9
$OSMODE
 70
    39
  9
$ATTMODE
 70
     1
  9
$TEXTSIZE
 40
5.0
  9
$TRACEWID
 40
0.6
  9
$TEXTSTYLE
  7
TEXT50
  9
$CLAYER
  8
0
  9
$CELTYPE
  6
BYLAYER
  9
$CECOLOR
 62
   256
  9
$DIMSCALE
 40
1.0
  9
$DIMASZ
 40
3.5
  9
$DIMEXO
 40
0.1
  9
$DIMDLI
 40
7.0
  9
$DIMRND
 40
0.0
  9
$DIMDLE
 40
0.0
  9
$DIMEXE
 40
1.8
  9
$DIMTP
 40
0.0
  9
$DIMTM
 40
0.0
  9
$DIMTXT
 40
3.5
  9
$DIMCEN
 40
1.5
  9
$DIMTSZ
 40
0.0
  9
$DIMTOL
 70
     0
  9
$DIMLIM
 70
     0
  9
$DIMTIH
 70
     0
  9
$DIMTOH
 70
     0
  9
$DIMSE1
 70
     0
  9
$DIMSE2
 70
     0
  9
$DIMTAD
 70
     1
  9
$DIMZIN
 70
     0
  9
$DIMBLK
  1

  9
$DIMASO
 70
     0
  9
$DIMSHO
 70
     1
  9
$DIMPOST
  1

  9
$DIMAPOST
  1

  9
$DIMALT
 70
     0
  9
$DIMALTD
 70
     2
  9
$DIMALTF
 40
25.399999999999999
  9
$DIMLFAC
 40
1.0
  9
$DIMTOFL
 70
     0
  9
$DIMTVP
 40
0.0
  9
$DIMTIX
 70
     0
  9
$DIMSOXD
 70
     0
  9
$DIMSAH
 70
     0
  9
$DIMBLK1
  1

  9
$DIMBLK2
  1

  9
$DIMSTYLE
  2
STANDARD
  9
$DIMCLRD
 70
     0
  9
$DIMCLRE
 70
     0
  9
$DIMCLRT
 70
     0
  9
$DIMTFAC
 40
1.0
  9
$DIMGAP
 40
0.09
  9
$LUNITS
 70
     2
  9
$LUPREC
 70
     1
  9
$SKETCHINC
 40
0.1
  9
$FILLETRAD
 40
0.0
  9
$AUNITS
 70
     0
  9
$AUPREC
 70
     0
  9
$MENU
  1
acad
  9
$ELEVATION
 40
0.0
  9
$PELEVATION
 40
0.0
  9
$THICKNESS
 40
0.0
  9
$LIMCHECK
 70
     0
  9
$BLIPMODE
 70
     0
  9
$CHAMFERA
 40
1.0
  9
$CHAMFERB
 40
1.0
  9
$SKPOLY
 70
     0
  9
$TDCREATE
 40
2449016.4831520831
  9
$TDUPDATE
 40
2452677.756936898
  9
$TDINDWG
 40
0.1549370255
  9
$TDUSRTIMER
 40
0.1549369097
  9
$USRTIMER
 70
     1
  9
$ANGBASE
 50
0.0
  9
$ANGDIR
 70
     0
  9
$PDMODE
 70
     0
  9
$PDSIZE
 40
0.0
  9
$PLINEWID
 40
0.0
  9
$COORDS
 70
     0
  9
$SPLFRAME
 70
     0
  9
$SPLINETYPE
 70
     6
  9
$SPLINESEGS
 70
     8
  9
$ATTDIA
 70
     0
  9
$ATTREQ
 70
     1
  9
$HANDLING
 70
  4097
  9
$HANDSEED
  5
3C8
  9
$SURFTAB1
 70
     6
  9
$SURFTAB2
 70
     6
  9
$SURFTYPE
 70
     6
  9
$SURFU
 70
     6
  9
$SURFV
 70
     6
  9
$UCSNAME
  2

  9
$UCSORG
 10
0.0
 20
0.0
 30
0.0
  9
$UCSXDIR
 10
1.0
 20
0.0
 30
0.0
  9
$UCSYDIR
 10
0.0
 20
1.0
 30
0.0
  9
$PUCSNAME
  2

  9
$PUCSORG
 10
0.0
 20
0.0
 30
0.0
  9
$PUCSXDIR
 10
1.0
 20
0.0
 30
0.0
  9
$PUCSYDIR
 10
0.0
 20
1.0
 30
0.0
  9
$USERI1
 70
     0
  9
$USERI2
 70
     0
  9
$USERI3
 70
     0
  9
$USERI4
 70
     0
  9
$USERI5
 70
     0
  9
$USERR1
 40
0.0
  9
$USERR2
 40
0.0
  9
$USERR3
 40
0.0
  9
$USERR4
 40
0.0
  9
$USERR5
 40
0.0
  9
$WORLDVIEW
 70
     1
  9
$SHADEDGE
 70
     3
  9
$SHADEDIF
 70
    70
  9
$TILEMODE
 70
     1
  9
$MAXACTVP
 70
    48
  9
$PLIMCHECK
 70
     0
  9
$PEXTMIN
 10
1.0000000000000000E+020
 20
1.0000000000000000E+020
 30
1.0000000000000000E+020
  9
$PEXTMAX
 10
-1.0000000000000000E+020
 20
-1.0000000000000000E+020
 30
-1.0000000000000000E+020
  9
$PLIMMIN
 10
0.0
 20
0.0
  9
$PLIMMAX
 10
12.0
 20
9.0
  9
$UNITMODE
 70
     0
  9
$VISRETAIN
 70
     1
  9
$PLINEGEN
 70
     0
  9
$PSLTSCALE
 70
     0
  0
ENDSEC
  0
SECTION
  2
TABLES
  0
TABLE
  2
VPORT
 70
     4
  0
VPORT
  2
*ACTIVE
 70
     0
 10
0.0
 20
0.0
 11
1.0
 21
1.0
 12
69.559196013674025
 22
-10.716555901435409
 13
0.0
 23
0.0
 14
0.5
 24
0.5
 15
10.0
 25
10.0
 16
0.0
 26
0.0
 36
1.0
 17
0.0
 27
0.0
 37
0.0
 40
109.4692238978031
 41
2.126099706744867
 42
50.0
 43
0.0
 44
0.0
 50
0.0
 51
0.0
 71
     0
 72
   100
 73
     1
 74
     0
 75
     0
 76
     0
 77
     0
 78
     0
  0
ENDTAB
  0
TABLE
  2
LTYPE
 70
     2
  0
LTYPE
  2
CONTINUOUS
 70
     0
  3
Solid line
 72
    65
 73
     0
 40
0.0
  0
LTYPE
  2
MITTKLEIN
 70
     0
  3
__ . __ . ___ 
 72
    65
 73
     4
 40
0.45
 49
0.25
 49
-0.1
 49
0.0
 49
-0.1
  0
ENDTAB
  0
TABLE
  2
LAYER
 70
     2
  0
LAYER
  2
0
 70
     0
 62
     7
  6
CONTINUOUS
  0
LAYER
  2
MITTELLI
 70
     0
 62
     1
  6
MITTKLEIN
  0
ENDTAB
  0
TABLE
  2
STYLE
 70
     4
  0
STYLE
  2
STANDARD
 70
     0
 40
0.0
 41
1.0
 50
0.0
 71
     0
 42
0.2
  3
txt
  4

  0
STYLE
  2
TEXT50
 70
     0
 40
5.0
 41
1.0
 50
0.0
 71
     0
 42
5.0
  3
8simplex
  4

  0
STYLE
  2
TXT
 70
     0
 40
0.0
 41
1.0
 50
0.0
 71
     0
 42
2.5
  3
8txt
  4

  0
STYLE
  2
SIMPLEX
 70
     0
 40
0.0
 41
0.8
 50
0.0
 71
     0
 42
8.0
  3
simplex
  4

  0
ENDTAB
  0
TABLE
  2
VIEW
 70
     0
  0
ENDTAB
  0
TABLE
  2
UCS
 70
     0
  0
ENDTAB
  0
TABLE
  2
APPID
 70
     1
  0
APPID
  2
ACAD
 70
     0
  0
ENDTAB
  0
TABLE
  2
DIMSTYLE
 70
     1
  0
DIMSTYLE
  2
STANDARD
 70
     0
  3

  4

  5

  6

  7

 40
1.0
 41
0.18
 42
0.0625
 43
0.38
 44
0.18
 45
0.0
 46
0.0
 47
0.0
 48
0.0
140
0.18
141
0.09
142
0.0
143
25.399999999999999
144
1.0
145
0.0
146
1.0
147
0.09
 71
     0
 72
     0
 73
     1
 74
     1
 75
     0
 76
     0
 77
     0
 78
     0
170
     0
171
     2
172
     0
173
     0
174
     0
175
     0
176
     0
177
     0
178
     0
  0
ENDTAB
  0
ENDSEC
  0
SECTION
  2
BLOCKS
  0
BLOCK
  8
0
  2
$MODEL_SPACE
 70
     0
 10
0.0
 20
0.0
 30
0.0
  3
$MODEL_SPACE
  1

  0
ENDBLK
  5
BD
  8
0
  0
BLOCK
 67
     1
  8
0
  2
$PAPER_SPACE
 70
     0
 10
0.0
 20
0.0
 30
0.0
  3
$PAPER_SPACE
  1

  0
ENDBLK
  5
B9
 67
     1
  8
0
  0
ENDSEC
  0
SECTION
  2
ENTITIES
  0
LINE
  5
CE
  8
MITTELLI
 10
175.63415604558679
 20
-0.0000000000000413
 30
0.0
 11
-36.529472106292921
 21
-0.0000000000000011
 31
0.0
  0
LINE
  5
CF
  8
0
 10
170.4999999999998
 20
42.999999999999979
 30
0.0
 11
0.0
 21
42.999999999999893
 31
0.0
  0
LINE
  5
D0
  8
0
 10
0.0
 20
42.999999999999893
 30
0.0
 11
-0.0000000000001137
 21
-43.0
 31
0.0
  0
LINE
  5
D1
  8
0
 10
-1.5000000000001119
 20
36.5
 30
0.0
 11
-1.5000000000001119
 21
-36.5
 31
0.0
  0
LINE
  5
D2
  8
0
 10
-1.5000000000001119
 20
6.0
 30
0.0
 11
-30.50000000000011
 21
6.0
 31
0.0
  0
LINE
  5
D3
  8
0
 10
-1.5000000000001119
 20
-6.0
 30
0.0
 11
-30.50000000000011
 21
-6.0
 31
0.0
  0
LINE
  5
D4
  8
0
 10
-30.50000000000011
 20
6.0
 30
0.0
 11
-30.50000000000011
 21
-6.0
 31
0.0
  0
LINE
  5
D5
  8
0
 10
-31.50000000000011
 20
5.0
 30
0.0
 11
-31.50000000000011
 21
-5.0
 31
0.0
  0
LINE
  5
D6
  8
0
 10
-30.50000000000011
 20
-6.0
 30
0.0
 11
-31.50000000000011
 21
-5.0
 31
0.0
  0
LINE
  5
D7
  8
0
 10
-30.50000000000011
 20
6.0
 30
0.0
 11
-31.50000000000011
 21
5.0
 31
0.0
  0
LINE
  5
D8
  8
0
 10
137.9999999999998
 20
-43.000000000000142
 30
0.0
 11
-0.0000000000001137
 21
-43.0
 31
0.0
  0
TEXT
  5
D9
  8
0
 10
11.543676545095421
 20
-38.719024203175287
 30
0.0
 40
3.2000000000000002
  1
SM 88.2.18 M BE50
  7
SIMPLEX
  0
LINE
  5
DA
  8
0
 10
-1.5000000000001119
 20
-36.5
 30
0.0
 11
-0.0000000000001137
 21
-36.5
 31
0.0
  0
LINE
  5
DB
  8
0
 10
-1.5000000000001119
 20
36.5
 30
0.0
 11
-0.0000000000001137
 21
36.5
 31
0.0
  0
LINE
  5
DC
  8
0
 10
7.0
 20
42.999999999999893
 30
0.0
 11
6.9999999999998863
 21
-43.0
 31
0.0
  0
LINE
  5
DD
  8
0
 10
92.999999999999886
 20
42.999999999999858
 30
0.0
 11
92.999999999999886
 21
-43.000000000000057
 31
0.0
  0
LINE
  5
DE
  8
0
 10
137.9999999999998
 20
42.999999999999822
 30
0.0
 11
137.9999999999998
 21
-45.000000000000092
 31
0.0
  0
LINE
  5
DF
  8
0
 10
167.4999999999998
 20
42.999999999999822
 30
0.0
 11
167.4999999999998
 21
-45.000000000000092
 31
0.0
  0
LINE
  5
E0
  8
0
 10
170.4999999999998
 20
42.999999999999979
 30
0.0
 11
170.4999999999998
 21
-43.000000000000142
 31
0.0
  0
LINE
  5
E1
  8
0
 10
95.999999999999872
 20
42.999999999999822
 30
0.0
 11
95.999999999999872
 21
-43.000000000000092
 31
0.0
  0
LINE
  5
FD
  8
0
 10
171.99999999999969
 20
38.499999999999893
 30
0.0
 11
171.99999999999969
 21
37.499999999999893
 31
0.0
  0
LINE
  5
FE
  8
0
 10
172.99999999999969
 20
37.499999999999893
 30
0.0
 11
171.99999999999969
 21
37.499999999999893
 31
0.0
  0
LINE
  5
FF
  8
0
 10
172.99999999999969
 20
36.12089919145459
 30
0.0
 11
172.99999999999969
 21
37.499999999999851
 31
0.0
  0
LINE
  5
100
  8
0
 10
172.52994614536371
 20
35.621796768721708
 30
0.0
 11
170.4999999999998
 21
35.499999999999851
 31
0.0
  0
ARC
  5
101
  8
0
 10
172.4999999999998
 20
36.12089919145459
 30
0.0
 40
0.5
 50
273.43363036244961
 51
0.0
  0
LINE
  5
102
  8
0
 10
172.52994614536371
 20
40.378203231278029
 30
0.0
 11
170.4999999999998
 21
40.499999999999893
 31
0.0
  0
LINE
  5
103
  8
0
 10
172.99999999999969
 20
38.499999999999893
 30
0.0
 11
171.99999999999969
 21
38.499999999999893
 31
0.0
  0
LINE
  5
104
  8
0
 10
172.99999999999969
 20
39.879100808545168
 30
0.0
 11
172.99999999999969
 21
38.499999999999893
 31
0.0
  0
ARC
  5
105
  8
0
 10
172.4999999999998
 20
39.879100808545168
 30
0.0
 40
0.5
 50
0.0
 51
86.566369637550437
  0
LINE
  5
352
  8
0
 10
167.4999999999998
 20
-45.000000000000092
 30
0.0
 11
163.25562014642449
 21
-45.000000000000092
 31
0.0
  0
LINE
  5
353
  8
0
 10
152.7877265494615
 20
-53.736398831964259
 30
0.0
 11
146.55315830118039
 21
-52.832361296403747
 31
0.0
  0
LINE
  5
354
  8
0
 10
152.78772654946579
 20
-53.736398831964259
 30
0.0
 11
159.02229479774701
 21
-52.832361296403747
 31
0.0
  0
LINE
  5
355
  8
0
 10
163.7499999999998
 20
-45.000000000000028
 30
0.0
 11
163.7499999999998
 21
-57.94117647058826
 31
0.0
  0
LINE
  5
356
  8
0
 10
141.7499999999998
 20
-57.94117647058826
 30
0.0
 11
141.7499999999998
 21
-45.000000000000028
 31
0.0
  0
ARC
  5
357
  8
0
 10
152.74999999999969
 20
-50.216931461690137
 30
0.0
 40
14.194833244192219
 50
247.2350767444407
 51
292.76492325555921
  0
LINE
  5
358
  8
0
 10
158.24270697594449
 20
-64.411764705882376
 30
0.0
 11
147.2572930240552
 21
-64.411764705882376
 31
0.0
  0
LINE
  5
359
  8
0
 10
163.7499999999998
 20
-61.17647058823534
 30
0.0
 11
141.7499999999998
 21
-61.17647058823534
 31
0.0
  0
LINE
  5
35A
  8
0
 10
163.7499999999998
 20
-57.94117647058826
 30
0.0
 11
141.7499999999998
 21
-57.94117647058826
 31
0.0
  0
LINE
  5
35B
  8
0
 10
143.93054511163851
 20
-61.17647058823534
 30
0.0
 11
143.93054511163851
 21
-57.94117647058826
 31
0.0
  0
ARC
  5
35C
  8
0
 10
144.50364651202759
 20
-60.430253638764327
 30
0.0
 40
3.981511067118523
 50
226.24243683463359
 51
313.75756316536399
  0
LINE
  5
35D
  8
0
 10
141.7499999999998
 20
-63.305990286021917
 30
0.0
 11
141.7499999999998
 21
-61.17647058823534
 31
0.0
  0
LINE
  5
35E
  8
0
 10
147.2572930240552
 20
-64.411764705882376
 30
0.0
 11
144.5036465120275
 21
-64.411764705882376
 31
0.0
  0
LINE
  5
35F
  8
0
 10
161.56945488836101
 20
-61.17647058823534
 30
0.0
 11
161.56945488836101
 21
-57.94117647058826
 31
0.0
  0
ARC
  5
360
  8
0
 10
160.99635348797159
 20
-60.430253638763311
 30
0.0
 40
3.9815110671192571
 50
226.2424368346451
 51
313.75756316535711
  0
LINE
  5
361
  8
0
 10
160.99635348797159
 20
-64.411764705882376
 30
0.0
 11
158.24270697594449
 21
-64.411764705882376
 31
0.0
  0
LINE
  5
362
  8
0
 10
158.24270697594449
 20
-61.17647058823534
 30
0.0
 11
158.24270697594449
 21
-63.305990286022372
 31
0.0
  0
LINE
  5
363
  8
0
 10
163.7499999999998
 20
-63.305990286022649
 30
0.0
 11
163.7499999999998
 21
-61.17647058823534
 31
0.0
  0
LINE
  5
364
  8
0
 10
152.78772654946371
 20
-43.948394907271847
 30
0.0
 11
146.55315830118269
 21
-44.852432442832423
 31
0.0
  0
LINE
  5
365
  8
0
 10
152.7877265494615
 20
-47.658817774853333
 30
0.0
 11
146.55315830118039
 21
-48.562855310413902
 31
0.0
  0
ARC
  5
366
  8
0
 10
152.89697997255189
 20
-57.16085934332903
 30
0.0
 40
14.93141625830204
 50
56.894423584626963
 51
123.1055764153712
  0
ARC
  5
367
  8
0
 10
152.7877265494638
 20
-57.192137778978392
 30
0.0
 40
17.005580066645241
 50
54.200970993750452
 51
125.7990290062495
  0
ARC
  5
368
  8
0
 10
152.78772654946351
 20
-40.65037886908204
 30
0.0
 40
12.60815275542957
 50
33.857998802880211
 51
146.14200119711711
  0
LINE
  5
369
  8
0
 10
142.31765271085371
 20
-44.841823036288673
 30
0.0
 11
142.31765271085371
 21
-33.62591663213427
 31
0.0
  0
LINE
  5
36A
  8
0
 10
142.31765271085359
 20
-44.841823036288758
 30
0.0
 11
142.31765271085359
 21
-33.625916632134363
 31
0.0
  0
LINE
  5
36B
  8
0
 10
142.319832878216
 20
-45.000000000000092
 30
0.0
 11
137.9999999999998
 21
-45.000000000000092
 31
0.0
  0
LINE
  5
36C
  8
0
 10
146.55315830118269
 20
-44.852432442832423
 30
0.0
 11
146.55315830118269
 21
-48.562855310413568
 31
0.0
  0
ARC
  5
36D
  8
0
 10
144.6969199377441
 20
-44.888132888009608
 30
0.0
 40
2.3797178696897441
 50
141.27305377249331
 51
241.89179587316031
  0
LINE
  5
36E
  8
0
 10
146.55315830118269
 20
-44.852432442832423
 30
0.0
 11
143.5757439743881
 21
-46.987185435828913
 31
0.0
  0
LINE
  5
36F
  8
0
 10
143.57574397438839
 20
-50.697608303408792
 30
0.0
 11
143.5757439743881
 21
-46.987185435828913
 31
0.0
  0
LINE
  5
370
  8
0
 10
146.55315830118039
 20
-48.562855310413902
 30
0.0
 11
143.57574397438611
 21
-50.69760830341032
 31
0.0
  0
LINE
  5
371
  8
0
 10
146.5531583011801
 20
-52.832361296406802
 30
0.0
 11
143.57574397438611
 21
-50.69760830341032
 31
0.0
  0
LINE
  5
372
  8
0
 10
142.31765271085371
 20
-43.000000000000099
 30
0.0
 11
140.58148316583939
 21
-43.000000000000092
 31
0.0
  0
LINE
  5
373
  8
0
 10
144.7416869162561
 20
-46.151225132146337
 30
0.0
 11
144.7416869162561
 21
-44.653326147505751
 31
0.0
  0
LINE
  5
374
  8
0
 10
163.2578003880736
 20
-33.625916632134661
 30
0.0
 11
163.2578003880736
 21
-44.653326147505737
 31
0.0
  0
LINE
  5
375
  8
0
 10
163.25780038807369
 20
-33.625916632134746
 30
0.0
 11
163.25780038807369
 21
-44.653326147505823
 31
0.0
  0
ARC
  5
376
  8
0
 10
156.15113736144141
 20
-50.764735127133257
 30
0.0
 40
0.4243268062755158
 50
307.16070302427562
 51
57.767753201270999
  0
LINE
  5
377
  8
0
 10
152.78772654946579
 20
-47.658817774853333
 30
0.0
 11
159.02229479774701
 21
-48.562855310413902
 31
0.0
  0
LINE
  5
378
  8
0
 10
152.78772654946371
 20
-43.948394907271847
 30
0.0
 11
159.02229479774471
 21
-44.852432442832423
 31
0.0
  0
LINE
  5
379
  8
0
 10
152.78772654946371
 20
-43.948394907271847
 30
0.0
 11
152.78772654946371
 21
-47.658817774853027
 31
0.0
  0
ARC
  5
37A
  8
0
 10
152.78772654946371
 20
-43.225102381545199
 30
0.0
 40
8.6696087345522432
 50
245.3219483027552
 51
294.6780516972446
  0
ARC
  5
37B
  8
0
 10
152.78772654946371
 20
-58.147022374327292
 30
0.0
 40
8.5330334904247067
 50
65.122103603562763
 51
114.87789639643719
  0
ARC
  5
37C
  8
0
 10
149.42431573748601
 20
-50.764735127133257
 30
0.0
 40
0.4243268062755158
 50
122.23224679872889
 51
232.8392969757243
  0
ARC
  5
37D
  8
0
 10
160.878532953101
 20
-44.88813284536274
 30
0.0
 40
2.3797180053420761
 50
298.10820806217282
 51
38.726942292199382
  0
LINE
  5
37E
  8
0
 10
159.02229479774471
 20
-44.852432442832423
 30
0.0
 11
159.02229479774471
 21
-48.562855310413568
 31
0.0
  0
LINE
  5
37F
  8
0
 10
159.02229479774471
 20
-44.852432442832423
 30
0.0
 11
161.99970912453909
 21
-46.987185435828913
 31
0.0
  0
LINE
  5
380
  8
0
 10
159.02229479774701
 20
-52.832361296403747
 30
0.0
 11
161.9997091245414
 21
-50.697608303407257
 31
0.0
  0
LINE
  5
381
  8
0
 10
159.02229479774701
 20
-48.562855310413902
 30
0.0
 11
161.9997091245414
 21
-50.69760830341032
 31
0.0
  0
LINE
  5
382
  8
0
 10
161.9997091245414
 20
-50.697608303407257
 30
0.0
 11
161.99970912453909
 21
-46.987185435828913
 31
0.0
  0
LINE
  5
383
  8
0
 10
163.2578003880736
 20
-43.000000000000099
 30
0.0
 11
164.91851683416019
 21
-43.000000000000092
 31
0.0
  0
LINE
  5
384
  8
0
 10
161.05227302884799
 20
-46.151225132146337
 30
0.0
 11
161.05227302884799
 21
-44.653326147505751
 31
0.0
  0
LINE
  5
385
  8
0
 10
172.9999999999998
 20
-39.87910080854536
 30
0.0
 11
172.9999999999998
 21
-38.500000000000092
 31
0.0
  0
LINE
  5
386
  8
0
 10
170.4999999999998
 20
-43.000000000000142
 30
0.0
 11
167.4999999999998
 21
-43.000000000000142
 31
0.0
  0
ARC
  5
387
  8
0
 10
172.4999999999998
 20
-39.87910080854536
 30
0.0
 40
0.5
 50
273.43363036244961
 51
0.0
  0
LINE
  5
388
  8
0
 10
172.52994614536371
 20
-40.378203231278242
 30
0.0
 11
170.4999999999998
 21
-40.500000000000078
 31
0.0
  0
ARC
  5
389
  8
0
 10
172.4999999999998
 20
-36.120899191454782
 30
0.0
 40
0.5
 50
0.0
 51
86.566369637550423
  0
LINE
  5
38A
  8
0
 10
172.9999999999998
 20
-36.120899191454782
 30
0.0
 11
172.9999999999998
 21
-37.50000000000005
 31
0.0
  0
LINE
  5
38B
  8
0
 10
171.9999999999998
 20
-38.500000000000092
 30
0.0
 11
171.9999999999998
 21
-37.500000000000092
 31
0.0
  0
LINE
  5
38C
  8
0
 10
172.9999999999998
 20
-38.500000000000092
 30
0.0
 11
171.9999999999998
 21
-38.500000000000092
 31
0.0
  0
LINE
  5
38D
  8
0
 10
172.9999999999998
 20
-37.500000000000092
 30
0.0
 11
171.9999999999998
 21
-37.500000000000092
 31
0.0
  0
LINE
  5
38E
  8
0
 10
172.52994614536371
 20
-35.621796768721921
 30
0.0
 11
170.4999999999998
 21
-35.500000000000057
 31
0.0
  0
ENDSEC
  0
EOF
