  0
SECTION
  2
HEADER
  9
$ACADVER
  1
AC1009
  9
$INSBASE
 10
0.0
 20
0.0
 30
0.0
  9
$EXTMIN
 10
-55.263885728465993
 20
-68.270560098970009
 30
-0.0000000349181948
  9
$EXTMAX
 10
48.320569141448459
 20
47.111872550951141
 30
0.0000000814935746
  9
$LIMMIN
 10
0.0
 20
0.0
  9
$LIMMAX
 10
410.0
 20
287.0
  9
$ORTHOMODE
 70
     1
  9
$REGENMODE
 70
     1
  9
$FILLMODE
 70
     1
  9
$QTEXTMODE
 70
     0
  9
$MIRRTEXT
 70
     1
  9
$DRAGMODE
 70
     2
  9
$LTSCALE
 40
25.0
  9
$OSMODE
 70
   309
  9
$ATTMODE
 70
     1
  9
$TEXTSIZE
 40
5.0
  9
$TRACEWID
 40
0.6
  9
$TEXTSTYLE
  7
TEXT50
  9
$CLAYER
  8
0
  9
$CELTYPE
  6
BYLAYER
  9
$CECOLOR
 62
   256
  9
$DIMSCALE
 40
1.0
  9
$DIMASZ
 40
3.5
  9
$DIMEXO
 40
0.1
  9
$DIMDLI
 40
7.0
  9
$DIMRND
 40
0.0
  9
$DIMDLE
 40
0.0
  9
$DIMEXE
 40
1.8
  9
$DIMTP
 40
0.0
  9
$DIMTM
 40
0.0
  9
$DIMTXT
 40
3.5
  9
$DIMCEN
 40
1.5
  9
$DIMTSZ
 40
0.0
  9
$DIMTOL
 70
     0
  9
$DIMLIM
 70
     0
  9
$DIMTIH
 70
     0
  9
$DIMTOH
 70
     0
  9
$DIMSE1
 70
     0
  9
$DIMSE2
 70
     0
  9
$DIMTAD
 70
     1
  9
$DIMZIN
 70
     0
  9
$DIMBLK
  1

  9
$DIMASO
 70
     0
  9
$DIMSHO
 70
     1
  9
$DIMPOST
  1

  9
$DIMAPOST
  1

  9
$DIMALT
 70
     0
  9
$DIMALTD
 70
     2
  9
$DIMALTF
 40
25.399999999999999
  9
$DIMLFAC
 40
1.0
  9
$DIMTOFL
 70
     0
  9
$DIMTVP
 40
0.0
  9
$DIMTIX
 70
     0
  9
$DIMSOXD
 70
     0
  9
$DIMSAH
 70
     0
  9
$DIMBLK1
  1

  9
$DIMBLK2
  1

  9
$DIMSTYLE
  2
STANDARD
  9
$DIMCLRD
 70
     0
  9
$DIMCLRE
 70
     0
  9
$DIMCLRT
 70
     0
  9
$DIMTFAC
 40
1.0
  9
$DIMGAP
 40
0.09
  9
$LUNITS
 70
     2
  9
$LUPREC
 70
     1
  9
$SKETCHINC
 40
0.1
  9
$FILLETRAD
 40
0.0
  9
$AUNITS
 70
     0
  9
$AUPREC
 70
     0
  9
$MENU
  1
acad
  9
$ELEVATION
 40
0.0
  9
$PELEVATION
 40
0.0
  9
$THICKNESS
 40
0.0
  9
$LIMCHECK
 70
     0
  9
$BLIPMODE
 70
     0
  9
$CHAMFERA
 40
4.0
  9
$CHAMFERB
 40
4.0
  9
$SKPOLY
 70
     0
  9
$TDCREATE
 40
2449016.4831520831
  9
$TDUPDATE
 40
2452651.5375257982
  9
$TDINDWG
 40
0.3155333333
  9
$TDUSRTIMER
 40
0.3155333333
  9
$USRTIMER
 70
     1
  9
$ANGBASE
 50
0.0
  9
$ANGDIR
 70
     0
  9
$PDMODE
 70
     0
  9
$PDSIZE
 40
0.0
  9
$PLINEWID
 40
0.0
  9
$COORDS
 70
     0
  9
$SPLFRAME
 70
     0
  9
$SPLINETYPE
 70
     6
  9
$SPLINESEGS
 70
     8
  9
$ATTDIA
 70
     0
  9
$ATTREQ
 70
     1
  9
$HANDLING
 70
  4097
  9
$HANDSEED
  5
E2
  9
$SURFTAB1
 70
     6
  9
$SURFTAB2
 70
     6
  9
$SURFTYPE
 70
     6
  9
$SURFU
 70
     6
  9
$SURFV
 70
     6
  9
$UCSNAME
  2

  9
$UCSORG
 10
0.0
 20
0.0
 30
0.0
  9
$UCSXDIR
 10
1.0
 20
0.0
 30
0.0
  9
$UCSYDIR
 10
0.0
 20
1.0
 30
0.0
  9
$PUCSNAME
  2

  9
$PUCSORG
 10
0.0
 20
0.0
 30
0.0
  9
$PUCSXDIR
 10
1.0
 20
0.0
 30
0.0
  9
$PUCSYDIR
 10
0.0
 20
1.0
 30
0.0
  9
$USERI1
 70
     0
  9
$USERI2
 70
     0
  9
$USERI3
 70
     0
  9
$USERI4
 70
     0
  9
$USERI5
 70
     0
  9
$USERR1
 40
0.0
  9
$USERR2
 40
0.0
  9
$USERR3
 40
0.0
  9
$USERR4
 40
0.0
  9
$USERR5
 40
0.0
  9
$WORLDVIEW
 70
     1
  9
$SHADEDGE
 70
     3
  9
$SHADEDIF
 70
    70
  9
$TILEMODE
 70
     1
  9
$MAXACTVP
 70
    48
  9
$PLIMCHECK
 70
     0
  9
$PEXTMIN
 10
1.0000000000000000E+020
 20
1.0000000000000000E+020
 30
1.0000000000000000E+020
  9
$PEXTMAX
 10
-1.0000000000000000E+020
 20
-1.0000000000000000E+020
 30
-1.0000000000000000E+020
  9
$PLIMMIN
 10
0.0
 20
0.0
  9
$PLIMMAX
 10
12.0
 20
9.0
  9
$UNITMODE
 70
     0
  9
$VISRETAIN
 70
     1
  9
$PLINEGEN
 70
     0
  9
$PSLTSCALE
 70
     0
  0
ENDSEC
  0
SECTION
  2
TABLES
  0
TABLE
  2
VPORT
 70
     4
  0
VPORT
  2
*ACTIVE
 70
     0
 10
0.0
 20
0.0
 11
1.0
 21
1.0
 12
-3.4716582935087739
 22
-10.57934377400943
 13
0.0
 23
0.0
 14
0.5
 24
0.5
 15
10.0
 25
10.0
 16
0.0
 26
0.0
 36
1.0
 17
0.0
 27
0.0
 37
0.0
 40
117.32708039121189
 41
2.0422535211267601
 42
50.0
 43
0.0
 44
0.0
 50
0.0
 51
0.0
 71
     0
 72
   100
 73
     1
 74
     0
 75
     0
 76
     0
 77
     0
 78
     0
  0
ENDTAB
  0
TABLE
  2
LTYPE
 70
     2
  0
LTYPE
  2
CONTINUOUS
 70
     0
  3
Solid line
 72
    65
 73
     0
 40
0.0
  0
LTYPE
  2
MITTKLEIN
 70
     0
  3
__ . __ . ___ 
 72
    65
 73
     4
 40
0.45
 49
0.25
 49
-0.1
 49
0.0
 49
-0.1
  0
ENDTAB
  0
TABLE
  2
LAYER
 70
     2
  0
LAYER
  2
0
 70
     0
 62
     7
  6
CONTINUOUS
  0
LAYER
  2
MITTELLI
 70
     0
 62
     1
  6
MITTKLEIN
  0
ENDTAB
  0
TABLE
  2
STYLE
 70
     2
  0
STYLE
  2
TXT
 70
     0
 40
0.0
 41
1.0
 50
0.0
 71
     0
 42
2.5
  3
8txt
  4

  0
STYLE
  2
TEXT50
 70
     0
 40
5.0
 41
1.0
 50
0.0
 71
     0
 42
5.0
  3
8simplex
  4

  0
ENDTAB
  0
TABLE
  2
VIEW
 70
     0
  0
ENDTAB
  0
TABLE
  2
UCS
 70
     0
  0
ENDTAB
  0
TABLE
  2
APPID
 70
     1
  0
APPID
  2
ACAD
 70
     0
  0
ENDTAB
  0
TABLE
  2
DIMSTYLE
 70
     1
  0
DIMSTYLE
  2
STANDARD
 70
     0
  3

  4

  5

  6

  7

 40
1.0
 41
0.18
 42
0.0625
 43
0.38
 44
0.18
 45
0.0
 46
0.0
 47
0.0
 48
0.0
140
0.18
141
0.09
142
0.0
143
25.399999999999999
144
1.0
145
0.0
146
1.0
147
0.09
 71
     0
 72
     0
 73
     1
 74
     1
 75
     0
 76
     0
 77
     0
 78
     0
170
     0
171
     2
172
     0
173
     0
174
     0
175
     0
176
     0
177
     0
178
     0
  0
ENDTAB
  0
ENDSEC
  0
SECTION
  2
BLOCKS
  0
BLOCK
  8
0
  2
$MODEL_SPACE
 70
     0
 10
0.0
 20
0.0
 30
0.0
  3
$MODEL_SPACE
  1

  0
ENDBLK
  5
9
  8
0
  0
BLOCK
 67
     1
  8
0
  2
$PAPER_SPACE
 70
     0
 10
0.0
 20
0.0
 30
0.0
  3
$PAPER_SPACE
  1

  0
ENDBLK
  5
E
 67
     1
  8
0
  0
ENDSEC
  0
SECTION
  2
ENTITIES
  0
LINE
  5
25
  8
MITTELLI
 10
-0.0000000000001137
 20
-68.247923164067274
 30
0.0
 11
-0.0000000000001137
 21
47.091140709247213
 31
0.0
  0
CIRCLE
  5
28
  8
0
 10
-0.0000000000001137
 20
0.0
 30
0.0
 40
11.0
  0
ARC
  5
29
  8
0
 10
0.0
 20
0.0
 30
0.0
 40
36.5
 50
322.10425524613618
 51
38.06204535989729
  0
ARC
  5
2A
  8
0
 10
0.0
 20
0.0
 30
0.0
 40
36.5
 50
141.93795464010529
 51
218.06204535989471
  0
LINE
  5
2B
  8
0
 10
-43.000000000000107
 20
-39.000000000000021
 30
0.0
 11
-43.000000000000107
 21
39.0
 31
0.0
  0
LINE
  5
2C
  8
0
 10
42.999999999999687
 20
39.0
 30
0.0
 11
43.000000000000007
 21
-39.000000000000028
 31
0.0
  0
LINE
  5
2D
  8
MITTELLI
 10
48.317533498506293
 20
0.0
 30
0.0
 11
-55.258289804349033
 21
0.0
 31
0.0
  0
ARC
  5
2E
  8
0
 10
0.0
 20
0.0
 30
0.0
 40
36.5
 50
231.93795464010259
 51
308.13852361878111
  0
LINE
  5
2F
  8
0
 10
39.000000000000028
 20
-43.000000000000028
 30
0.0
 11
-39.000000000000107
 21
-43.000000000000021
 31
0.0
  0
CIRCLE
  5
30
  8
0
 10
-26.870057685088909
 20
-26.870057685088788
 30
0.0
 40
4.75
  0
LINE
  5
31
  8
0
 10
-30.618603023689442
 20
-29.787403712641598
 30
0.0
 11
-24.696031785547461
 21
-22.64677562155736
 31
0.0
  0
LINE
  5
32
  8
0
 10
-29.23892129852436
 20
-30.987215100222041
 30
0.0
 11
-23.261829007164689
 21
-23.780852964158498
 31
0.0
  0
ARC
  5
33
  8
0
 10
-25.1673736191463
 20
-38.722761477854412
 30
0.0
 40
10.96873477960308
 50
214.21372786568671
 51
259.74357437680447
  0
LINE
  5
34
  8
0
 10
-34.703563995474383
 20
-45.606717144676509
 30
0.0
 11
-27.586040026314262
 21
-50.232662664536349
 31
0.0
  0
LINE
  5
35
  8
0
 10
-34.126719621162692
 20
-43.000000000000057
 30
0.0
 11
-22.655448910670032
 21
-50.45560866113459
 31
0.0
  0
LINE
  5
36
  8
0
 10
-21.293070178789431
 20
-48.359439729268757
 30
0.0
 11
-29.539155345718761
 21
-43.000000000000057
 31
0.0
  0
LINE
  5
37
  8
0
 10
-21.293070178789431
 20
-48.359439729268757
 30
0.0
 11
-17.809769481525329
 21
-43.000000000000057
 31
0.0
  0
LINE
  5
38
  8
0
 10
-24.06823883063964
 20
-49.537383555170102
 30
0.0
 11
-22.7058600987591
 21
-47.441214623304319
 31
0.0
  0
LINE
  5
39
  8
0
 10
-26.223661294433668
 20
-48.136493732670537
 30
0.0
 11
-27.120399655734779
 21
-49.516223942035197
 31
0.0
  0
LINE
  5
3A
  8
0
 10
-23.552187271970858
 20
-51.835338870498958
 30
0.0
 11
-22.655448910670032
 21
-50.45560866113459
 31
0.0
  0
ARC
  5
3B
  8
0
 10
-24.12532398032328
 20
-48.812572190347652
 30
0.0
 40
3.0766221882279492
 50
193.2210879558819
 51
280.7362142866067
  0
LINE
  5
3C
  8
0
 10
-27.586040026314262
 20
-50.232662664536349
 30
0.0
 11
-25.801933834432418
 21
-51.392220128768372
 31
0.0
  0
LINE
  5
3D
  8
0
 10
-36.487670187355882
 20
-44.447159680444713
 30
0.0
 11
-34.703563995474383
 21
-45.606717144676509
 31
0.0
  0
ARC
  5
3E
  8
0
 10
-34.811060333246239
 20
-41.867511742023368
 30
0.0
 40
3.0766221882285159
 50
201.5981591243596
 51
280.7362142865997
  0
CIRCLE
  5
3F
  8
0
 10
-35.0
 20
-35.0
 30
0.0
 40
3.2999999999999989
  0
LINE
  5
41
  8
0
 10
-33.341185263593843
 20
-43.510548212810697
 30
0.0
 11
-34.237923624894897
 21
-44.890278422175378
 31
0.0
  0
CIRCLE
  5
42
  8
0
 10
26.870057685088678
 20
-26.870057685088788
 30
0.0
 40
4.75
  0
LINE
  5
43
  8
0
 10
29.787403712641488
 20
-30.618603023689388
 30
0.0
 11
22.64677562155725
 21
-24.696031785547341
 31
0.0
  0
LINE
  5
44
  8
0
 10
10.999999999999879
 20
-44.999999999999972
 30
0.0
 11
10.999999999999879
 21
-57.941176470588204
 31
0.0
  0
LINE
  5
45
  8
0
 10
-11.00000000000011
 20
-57.941176470588204
 30
0.0
 11
-11.00000000000011
 21
-44.999999999999972
 31
0.0
  0
LINE
  5
46
  8
0
 10
10.999999999999879
 20
-61.176470588235247
 30
0.0
 11
-11.00000000000011
 21
-61.176470588235247
 31
0.0
  0
LINE
  5
47
  8
0
 10
10.999999999999879
 20
-57.941176470588204
 30
0.0
 11
-11.00000000000011
 21
-57.941176470588204
 31
0.0
  0
LINE
  5
48
  8
0
 10
5.492706975944543
 20
-64.411764705882305
 30
0.0
 11
-5.4927069759447704
 21
-64.411764705882305
 31
0.0
  0
ARC
  5
49
  8
0
 10
-0.0000000000001705
 20
-50.216931461690081
 30
0.0
 40
14.194833244192219
 50
247.2350767444407
 51
292.76492325555921
  0
LINE
  5
4A
  8
0
 10
-11.00000000000011
 20
-63.305990286021881
 30
0.0
 11
-11.00000000000011
 21
-61.176470588235247
 31
0.0
  0
LINE
  5
4B
  8
0
 10
-5.4927069759447704
 20
-64.411764705882305
 30
0.0
 11
-8.2463534879723852
 21
-64.411764705882305
 31
0.0
  0
ARC
  5
4C
  8
0
 10
-8.2463534879722715
 20
-60.43025363876427
 30
0.0
 40
3.981511067118523
 50
226.24243683463339
 51
313.75756316536427
  0
LINE
  5
4D
  8
0
 10
-8.8194548883613493
 20
-61.176470588235247
 30
0.0
 11
-8.8194548883613493
 21
-57.941176470588204
 31
0.0
  0
LINE
  5
4E
  8
0
 10
10.999999999999879
 20
-63.305990286022592
 30
0.0
 11
10.999999999999879
 21
-61.176470588235247
 31
0.0
  0
LINE
  5
4F
  8
0
 10
5.492706975944543
 20
-61.176470588235247
 30
0.0
 11
5.492706975944543
 21
-63.305990286022308
 31
0.0
  0
LINE
  5
50
  8
0
 10
8.2463534879717031
 20
-64.411764705882305
 30
0.0
 11
5.492706975944543
 21
-64.411764705882305
 31
0.0
  0
ARC
  5
51
  8
0
 10
8.2463534879717031
 20
-60.43025363876324
 30
0.0
 40
3.9815110671192571
 50
226.24243683464479
 51
313.75756316535728
  0
LINE
  5
52
  8
0
 10
8.8194548883611201
 20
-61.176470588235247
 30
0.0
 11
8.8194548883611201
 21
-57.941176470588204
 31
0.0
  0
LINE
  5
53
  8
0
 10
14.499999999999879
 20
-44.999999999999972
 30
0.0
 11
-14.50000000000011
 21
-44.999999999999972
 31
0.0
  0
ARC
  5
54
  8
0
 10
-14.50000000000011
 20
-44.499999999999972
 30
0.0
 40
0.5
 50
180.0
 51
270.0
  0
LINE
  5
55
  8
0
 10
-15.00000000000011
 20
-44.499999999999972
 30
0.0
 11
-15.00000000000011
 21
-43.000000000000057
 31
0.0
  0
ARC
  5
56
  8
0
 10
14.499999999999879
 20
-44.499999999999972
 30
0.0
 40
0.5
 50
270.0
 51
0.0
  0
LINE
  5
57
  8
0
 10
14.999999999999879
 20
-44.499999999999972
 30
0.0
 11
14.999999999999829
 21
-43.000000000000057
 31
0.0
  0
CIRCLE
  5
59
  8
0
 10
34.999999999999879
 20
-35.0
 30
0.0
 40
3.2999999999999989
  0
LINE
  5
5B
  8
0
 10
30.987215100221931
 20
-29.238921298524239
 30
0.0
 11
23.780852964158321
 21
-23.261829007164579
 31
0.0
  0
ARC
  5
5C
  8
0
 10
0.0
 20
0.0
 30
0.0
 40
36.5
 50
51.937954640109851
 51
128.06204535989519
  0
LINE
  5
5D
  8
0
 10
-39.000000000000107
 20
43.0
 30
0.0
 11
38.99999999999968
 21
43.0
 31
0.0
  0
LINE
  5
5F
  8
0
 10
-30.987215100222151
 20
29.238921298524239
 30
0.0
 11
-23.780852964158552
 21
23.261829007164579
 31
0.0
  0
CIRCLE
  5
60
  8
0
 10
-26.870057685088909
 20
26.870057685088788
 30
0.0
 40
4.75
  0
CIRCLE
  5
61
  8
0
 10
-35.0
 20
35.0
 30
0.0
 40
3.2999999999999989
  0
LINE
  5
62
  8
0
 10
-29.787403712641709
 20
30.618603023689271
 30
0.0
 11
-22.646775621557481
 21
24.696031785547341
 31
0.0
  0
CIRCLE
  5
64
  8
0
 10
26.870057685088678
 20
26.870057685088678
 30
0.0
 40
4.75
  0
LINE
  5
65
  8
0
 10
30.618603023689221
 20
29.787403712641549
 30
0.0
 11
24.69603178554723
 21
22.64677562155725
 31
0.0
  0
LINE
  5
66
  8
0
 10
29.238921298524129
 20
30.987215100221981
 30
0.0
 11
23.261829007164462
 21
23.780852964158381
 31
0.0
  0
CIRCLE
  5
67
  8
0
 10
34.999999999999879
 20
35.0
 30
0.0
 40
3.2999999999999989
  0
LINE
  5
DA
  8
0
 10
-39.000000000000107
 20
-43.000000000000021
 30
0.0
 11
-43.000000000000107
 21
-39.000000000000021
 31
0.0
  0
LINE
  5
DB
  8
0
 10
-43.000000000000107
 20
39.0
 30
0.0
 11
-39.000000000000107
 21
43.0
 31
0.0
  0
LINE
  5
DC
  8
0
 10
38.99999999999968
 20
43.0
 30
0.0
 11
42.999999999999687
 21
39.0
 31
0.0
  0
LINE
  5
DD
  8
0
 10
43.000000000000007
 20
-39.000000000000028
 30
0.0
 11
39.000000000000028
 21
-43.000000000000028
 31
0.0
  0
CIRCLE
  5
DE
  8
0
 10
0.0
 20
0.0
 30
0.0
 40
6.0
  0
ENDSEC
  0
EOF
